ISO-10303-21;
HEADER;
/* Generated by software containing ST-Developer
 * from STEP Tools, Inc. (www.steptools.com) 
 */

FILE_DESCRIPTION(
/* description */ (''),
/* implementation_level */ '2;1');

FILE_NAME(
/* name */ 
'E:\\Allgemein\\Inventor Pojekte\\Ger\X\E4te\\KX0099_Shrinkwrap_1.stp',

/* time_stamp */ '2022-06-15T10:52:08+02:00',
/* author */ ('Krieger Anja'),
/* organization */ (''),
/* preprocessor_version */ 'ST-DEVELOPER v18.1',
/* originating_system */ 'Autodesk Inventor 2021',
/* authorisation */ '');

FILE_SCHEMA (('AUTOMOTIVE_DESIGN { 1 0 10303 214 3 1 1 }'));
ENDSEC;

DATA;
#10=MECHANICAL_DESIGN_GEOMETRIC_PRESENTATION_REPRESENTATION('',(#184,#185,
#186,#187,#188,#189,#190,#191,#192,#193,#194,#195,#196,#197),#438);
#11=SHAPE_REPRESENTATION_RELATIONSHIP('SRR','None',#445,#12);
#12=ADVANCED_BREP_SHAPE_REPRESENTATION('',(#13),#437);
#13=MANIFOLD_SOLID_BREP('Volumenk\X\F6rper1',#211);
#14=B_SPLINE_CURVE_WITH_KNOTS('',3,(#365,#366,#367,#368,#369,#370,#371,
#372,#373,#374,#375,#376,#377,#378,#379,#380),.UNSPECIFIED.,.F.,.F.,(4,
2,2,2,2,2,2,4),(0.895187726460155,0.927488083231662,0.959788440003168,1.02438915354618,
1.05482100242099,1.0852528512958,1.11872008687569,1.14290437026042),
 .UNSPECIFIED.);
#15=B_SPLINE_CURVE_WITH_KNOTS('',3,(#383,#384,#385,#386,#387,#388,#389,
#390,#391,#392,#393,#394,#395,#396,#397,#398),.UNSPECIFIED.,.F.,.F.,(4,
2,2,2,2,2,2,4),(0.647471082659891,0.671655366044622,0.705122601624506,0.735554450499317,
0.765986299374129,0.830587012917142,0.862887369688648,0.895187726460155),
 .UNSPECIFIED.);
#16=B_SPLINE_CURVE_WITH_KNOTS('',3,(#401,#402,#403,#404,#405,#406,#407,
#408,#409,#410,#411,#412,#413,#414,#415,#416),.UNSPECIFIED.,.F.,.F.,(4,
2,2,2,2,2,2,4),(0.0506792650197891,0.0748635484045185,0.108330783984403,
0.138762632859214,0.169194481734026,0.233795195277039,0.266095552048545,
0.298395908820052),.UNSPECIFIED.);
#17=B_SPLINE_CURVE_WITH_KNOTS('',3,(#417,#418,#419,#420,#421,#422,#423,
#424,#425,#426,#427,#428,#429,#430,#431,#432),.UNSPECIFIED.,.F.,.F.,(4,
2,2,2,2,2,2,4),(0.298395908820052,0.330696265591559,0.362996622363065,0.427597335906078,
0.45802918478089,0.488461033655701,0.521928269235586,0.546112552620316),
 .UNSPECIFIED.);
#18=CYLINDRICAL_SURFACE('',#238,6.);
#19=CYLINDRICAL_SURFACE('',#246,5.3);
#20=CYLINDRICAL_SURFACE('',#248,5.5);
#21=CYLINDRICAL_SURFACE('',#254,0.9);
#22=CYLINDRICAL_SURFACE('',#255,0.9);
#23=CYLINDRICAL_SURFACE('',#256,1.5);
#24=LINE('',#331,#32);
#25=LINE('',#338,#33);
#26=LINE('',#340,#34);
#27=LINE('',#345,#35);
#28=LINE('',#350,#36);
#29=LINE('',#356,#37);
#30=LINE('',#382,#38);
#31=LINE('',#434,#39);
#32=VECTOR('',#271,5.70000000000001);
#33=VECTOR('',#280,6.);
#34=VECTOR('',#283,5.7);
#35=VECTOR('',#288,5.15000000000001);
#36=VECTOR('',#295,5.3);
#37=VECTOR('',#302,5.5);
#38=VECTOR('',#313,10.);
#39=VECTOR('',#318,1.5);
#40=CONICAL_SURFACE('',#234,5.7,0.785398163397446);
#41=CONICAL_SURFACE('',#241,5.7,0.78539816339745);
#42=CONICAL_SURFACE('',#242,5.15,0.785398163397454);
#43=FACE_BOUND('',#60,.T.);
#44=FACE_BOUND('',#69,.T.);
#45=FACE_BOUND('',#71,.T.);
#46=FACE_OUTER_BOUND('',#59,.T.);
#47=FACE_OUTER_BOUND('',#61,.T.);
#48=FACE_OUTER_BOUND('',#62,.T.);
#49=FACE_OUTER_BOUND('',#63,.T.);
#50=FACE_OUTER_BOUND('',#64,.T.);
#51=FACE_OUTER_BOUND('',#65,.T.);
#52=FACE_OUTER_BOUND('',#66,.T.);
#53=FACE_OUTER_BOUND('',#67,.T.);
#54=FACE_OUTER_BOUND('',#68,.T.);
#55=FACE_OUTER_BOUND('',#70,.T.);
#56=FACE_OUTER_BOUND('',#72,.T.);
#57=FACE_OUTER_BOUND('',#73,.T.);
#58=FACE_OUTER_BOUND('',#74,.T.);
#59=EDGE_LOOP('',(#130));
#60=EDGE_LOOP('',(#131));
#61=EDGE_LOOP('',(#132,#133,#134,#135,#136));
#62=EDGE_LOOP('',(#137,#138,#139,#140,#141,#142));
#63=EDGE_LOOP('',(#143,#144,#145,#146,#147));
#64=EDGE_LOOP('',(#148,#149,#150,#151,#152));
#65=EDGE_LOOP('',(#153,#154,#155,#156,#157));
#66=EDGE_LOOP('',(#158));
#67=EDGE_LOOP('',(#159,#160,#161,#162));
#68=EDGE_LOOP('',(#163));
#69=EDGE_LOOP('',(#164));
#70=EDGE_LOOP('',(#165));
#71=EDGE_LOOP('',(#166));
#72=EDGE_LOOP('',(#167,#168,#169));
#73=EDGE_LOOP('',(#170,#171,#172));
#74=EDGE_LOOP('',(#173,#174,#175,#176,#177,#178,#179));
#75=CIRCLE('',#232,5.4);
#76=CIRCLE('',#233,5.3);
#77=CIRCLE('',#235,6.);
#78=CIRCLE('',#236,6.);
#79=CIRCLE('',#237,5.40000000000001);
#80=CIRCLE('',#239,6.);
#81=CIRCLE('',#240,6.);
#82=CIRCLE('',#243,5.);
#83=CIRCLE('',#244,5.3);
#84=CIRCLE('',#245,5.3);
#85=CIRCLE('',#249,5.50000000000001);
#86=CIRCLE('',#250,5.5);
#87=CIRCLE('',#253,1.5);
#88=VERTEX_POINT('',#321);
#89=VERTEX_POINT('',#323);
#90=VERTEX_POINT('',#326);
#91=VERTEX_POINT('',#327);
#92=VERTEX_POINT('',#330);
#93=VERTEX_POINT('',#334);
#94=VERTEX_POINT('',#335);
#95=VERTEX_POINT('',#342);
#96=VERTEX_POINT('',#344);
#97=VERTEX_POINT('',#346);
#98=VERTEX_POINT('',#353);
#99=VERTEX_POINT('',#355);
#100=VERTEX_POINT('',#360);
#101=VERTEX_POINT('',#363);
#102=VERTEX_POINT('',#364);
#103=VERTEX_POINT('',#381);
#104=VERTEX_POINT('',#400);
#105=EDGE_CURVE('',#88,#88,#75,.T.);
#106=EDGE_CURVE('',#89,#89,#76,.T.);
#107=EDGE_CURVE('',#90,#91,#77,.T.);
#108=EDGE_CURVE('',#91,#90,#78,.T.);
#109=EDGE_CURVE('',#90,#92,#24,.T.);
#110=EDGE_CURVE('',#92,#92,#79,.T.);
#111=EDGE_CURVE('',#93,#94,#80,.T.);
#112=EDGE_CURVE('',#94,#93,#81,.T.);
#113=EDGE_CURVE('',#94,#91,#25,.T.);
#114=EDGE_CURVE('',#88,#93,#26,.T.);
#115=EDGE_CURVE('',#95,#95,#82,.T.);
#116=EDGE_CURVE('',#95,#96,#27,.T.);
#117=EDGE_CURVE('',#96,#97,#83,.T.);
#118=EDGE_CURVE('',#97,#96,#84,.T.);
#119=EDGE_CURVE('',#97,#89,#28,.T.);
#120=EDGE_CURVE('',#98,#98,#85,.T.);
#121=EDGE_CURVE('',#98,#99,#29,.T.);
#122=EDGE_CURVE('',#99,#99,#86,.T.);
#123=EDGE_CURVE('',#100,#100,#87,.T.);
#124=EDGE_CURVE('',#101,#102,#14,.T.);
#125=EDGE_CURVE('',#103,#102,#30,.T.);
#126=EDGE_CURVE('',#103,#101,#15,.T.);
#127=EDGE_CURVE('',#102,#104,#16,.T.);
#128=EDGE_CURVE('',#104,#103,#17,.T.);
#129=EDGE_CURVE('',#101,#100,#31,.T.);
#130=ORIENTED_EDGE('',*,*,#105,.F.);
#131=ORIENTED_EDGE('',*,*,#106,.F.);
#132=ORIENTED_EDGE('',*,*,#107,.T.);
#133=ORIENTED_EDGE('',*,*,#108,.T.);
#134=ORIENTED_EDGE('',*,*,#109,.T.);
#135=ORIENTED_EDGE('',*,*,#110,.F.);
#136=ORIENTED_EDGE('',*,*,#109,.F.);
#137=ORIENTED_EDGE('',*,*,#111,.F.);
#138=ORIENTED_EDGE('',*,*,#112,.F.);
#139=ORIENTED_EDGE('',*,*,#113,.T.);
#140=ORIENTED_EDGE('',*,*,#107,.F.);
#141=ORIENTED_EDGE('',*,*,#108,.F.);
#142=ORIENTED_EDGE('',*,*,#113,.F.);
#143=ORIENTED_EDGE('',*,*,#105,.T.);
#144=ORIENTED_EDGE('',*,*,#114,.T.);
#145=ORIENTED_EDGE('',*,*,#111,.T.);
#146=ORIENTED_EDGE('',*,*,#112,.T.);
#147=ORIENTED_EDGE('',*,*,#114,.F.);
#148=ORIENTED_EDGE('',*,*,#115,.T.);
#149=ORIENTED_EDGE('',*,*,#116,.T.);
#150=ORIENTED_EDGE('',*,*,#117,.T.);
#151=ORIENTED_EDGE('',*,*,#118,.T.);
#152=ORIENTED_EDGE('',*,*,#116,.F.);
#153=ORIENTED_EDGE('',*,*,#117,.F.);
#154=ORIENTED_EDGE('',*,*,#118,.F.);
#155=ORIENTED_EDGE('',*,*,#119,.T.);
#156=ORIENTED_EDGE('',*,*,#106,.T.);
#157=ORIENTED_EDGE('',*,*,#119,.F.);
#158=ORIENTED_EDGE('',*,*,#115,.F.);
#159=ORIENTED_EDGE('',*,*,#120,.F.);
#160=ORIENTED_EDGE('',*,*,#121,.T.);
#161=ORIENTED_EDGE('',*,*,#122,.T.);
#162=ORIENTED_EDGE('',*,*,#121,.F.);
#163=ORIENTED_EDGE('',*,*,#120,.T.);
#164=ORIENTED_EDGE('',*,*,#110,.T.);
#165=ORIENTED_EDGE('',*,*,#122,.F.);
#166=ORIENTED_EDGE('',*,*,#123,.T.);
#167=ORIENTED_EDGE('',*,*,#124,.T.);
#168=ORIENTED_EDGE('',*,*,#125,.F.);
#169=ORIENTED_EDGE('',*,*,#126,.T.);
#170=ORIENTED_EDGE('',*,*,#127,.T.);
#171=ORIENTED_EDGE('',*,*,#128,.T.);
#172=ORIENTED_EDGE('',*,*,#125,.T.);
#173=ORIENTED_EDGE('',*,*,#124,.F.);
#174=ORIENTED_EDGE('',*,*,#129,.T.);
#175=ORIENTED_EDGE('',*,*,#123,.F.);
#176=ORIENTED_EDGE('',*,*,#129,.F.);
#177=ORIENTED_EDGE('',*,*,#126,.F.);
#178=ORIENTED_EDGE('',*,*,#128,.F.);
#179=ORIENTED_EDGE('',*,*,#127,.F.);
#180=PLANE('',#231);
#181=PLANE('',#247);
#182=PLANE('',#251);
#183=PLANE('',#252);
#184=STYLED_ITEM('',(#455),#198);
#185=STYLED_ITEM('',(#455),#199);
#186=STYLED_ITEM('',(#455),#200);
#187=STYLED_ITEM('',(#455),#201);
#188=STYLED_ITEM('',(#456),#202);
#189=STYLED_ITEM('',(#456),#203);
#190=STYLED_ITEM('',(#456),#204);
#191=STYLED_ITEM('',(#457),#205);
#192=STYLED_ITEM('',(#457),#206);
#193=STYLED_ITEM('',(#457),#207);
#194=STYLED_ITEM('',(#458),#208);
#195=STYLED_ITEM('',(#458),#209);
#196=STYLED_ITEM('',(#458),#210);
#197=STYLED_ITEM('',(#454),#13);
#198=ADVANCED_FACE('',(#46,#43),#180,.T.);
#199=ADVANCED_FACE('',(#47),#40,.T.);
#200=ADVANCED_FACE('',(#48),#18,.T.);
#201=ADVANCED_FACE('',(#49),#41,.T.);
#202=ADVANCED_FACE('',(#50),#42,.T.);
#203=ADVANCED_FACE('',(#51),#19,.T.);
#204=ADVANCED_FACE('',(#52),#181,.T.);
#205=ADVANCED_FACE('',(#53),#20,.T.);
#206=ADVANCED_FACE('',(#54,#44),#182,.T.);
#207=ADVANCED_FACE('',(#55,#45),#183,.T.);
#208=ADVANCED_FACE('',(#56),#21,.T.);
#209=ADVANCED_FACE('',(#57),#22,.F.);
#210=ADVANCED_FACE('',(#58),#23,.T.);
#211=CLOSED_SHELL('',(#198,#199,#200,#201,#202,#203,#204,#205,#206,#207,
#208,#209,#210));
#212=DERIVED_UNIT_ELEMENT(#214,1.);
#213=DERIVED_UNIT_ELEMENT(#440,3.);
#214=(
MASS_UNIT()
NAMED_UNIT(*)
SI_UNIT($,.GRAM.)
);
#215=DERIVED_UNIT((#212,#213));
#216=MEASURE_REPRESENTATION_ITEM('density measure',
POSITIVE_RATIO_MEASURE(1.),#215);
#217=PROPERTY_DEFINITION_REPRESENTATION(#222,#219);
#218=PROPERTY_DEFINITION_REPRESENTATION(#223,#220);
#219=REPRESENTATION('material name',(#221),#437);
#220=REPRESENTATION('density',(#216),#437);
#221=DESCRIPTIVE_REPRESENTATION_ITEM('Allgemein','Allgemein');
#222=PROPERTY_DEFINITION('material property','material name',#447);
#223=PROPERTY_DEFINITION('material property','density of part',#447);
#224=DATE_TIME_ROLE('creation_date');
#225=APPLIED_DATE_AND_TIME_ASSIGNMENT(#226,#224,(#447));
#226=DATE_AND_TIME(#227,#228);
#227=CALENDAR_DATE(2022,15,6);
#228=LOCAL_TIME(0,0,0.,#229);
#229=COORDINATED_UNIVERSAL_TIME_OFFSET(0,0,.BEHIND.);
#230=AXIS2_PLACEMENT_3D('placement',#319,#257,#258);
#231=AXIS2_PLACEMENT_3D('',#320,#259,#260);
#232=AXIS2_PLACEMENT_3D('',#322,#261,#262);
#233=AXIS2_PLACEMENT_3D('',#324,#263,#264);
#234=AXIS2_PLACEMENT_3D('',#325,#265,#266);
#235=AXIS2_PLACEMENT_3D('',#328,#267,#268);
#236=AXIS2_PLACEMENT_3D('',#329,#269,#270);
#237=AXIS2_PLACEMENT_3D('',#332,#272,#273);
#238=AXIS2_PLACEMENT_3D('',#333,#274,#275);
#239=AXIS2_PLACEMENT_3D('',#336,#276,#277);
#240=AXIS2_PLACEMENT_3D('',#337,#278,#279);
#241=AXIS2_PLACEMENT_3D('',#339,#281,#282);
#242=AXIS2_PLACEMENT_3D('',#341,#284,#285);
#243=AXIS2_PLACEMENT_3D('',#343,#286,#287);
#244=AXIS2_PLACEMENT_3D('',#347,#289,#290);
#245=AXIS2_PLACEMENT_3D('',#348,#291,#292);
#246=AXIS2_PLACEMENT_3D('',#349,#293,#294);
#247=AXIS2_PLACEMENT_3D('',#351,#296,#297);
#248=AXIS2_PLACEMENT_3D('',#352,#298,#299);
#249=AXIS2_PLACEMENT_3D('',#354,#300,#301);
#250=AXIS2_PLACEMENT_3D('',#357,#303,#304);
#251=AXIS2_PLACEMENT_3D('',#358,#305,#306);
#252=AXIS2_PLACEMENT_3D('',#359,#307,#308);
#253=AXIS2_PLACEMENT_3D('',#361,#309,#310);
#254=AXIS2_PLACEMENT_3D('',#362,#311,#312);
#255=AXIS2_PLACEMENT_3D('',#399,#314,#315);
#256=AXIS2_PLACEMENT_3D('',#433,#316,#317);
#257=DIRECTION('axis',(0.,0.,1.));
#258=DIRECTION('refdir',(1.,0.,0.));
#259=DIRECTION('center_axis',(-7.79290821971862E-17,-1.,0.));
#260=DIRECTION('ref_axis',(0.,0.,-1.));
#261=DIRECTION('center_axis',(7.79290821971862E-17,1.,0.));
#262=DIRECTION('ref_axis',(-1.,7.79290821971862E-17,0.));
#263=DIRECTION('center_axis',(2.56849708485249E-16,-1.,2.40561835287468E-16));
#264=DIRECTION('ref_axis',(1.,2.56849708485249E-16,8.32667268468867E-17));
#265=DIRECTION('center_axis',(-7.79290821971864E-17,-1.,0.));
#266=DIRECTION('ref_axis',(-1.,3.69137757776145E-17,0.));
#267=DIRECTION('center_axis',(7.79290821971862E-17,1.,0.));
#268=DIRECTION('ref_axis',(-1.,0.,0.));
#269=DIRECTION('center_axis',(7.79290821971862E-17,1.,0.));
#270=DIRECTION('ref_axis',(-1.,0.,0.));
#271=DIRECTION('',(-0.707106781186545,0.707106781186549,-8.65956056235491E-17));
#272=DIRECTION('center_axis',(1.31758489477528E-16,1.,0.));
#273=DIRECTION('ref_axis',(-1.,3.69137757776145E-17,0.));
#274=DIRECTION('center_axis',(-7.79290821971862E-17,-1.,0.));
#275=DIRECTION('ref_axis',(1.,0.,0.));
#276=DIRECTION('center_axis',(-7.79290821971862E-17,-1.,0.));
#277=DIRECTION('ref_axis',(-1.,0.,0.));
#278=DIRECTION('center_axis',(-7.79290821971862E-17,-1.,0.));
#279=DIRECTION('ref_axis',(-1.,0.,0.));
#280=DIRECTION('',(7.79290821971862E-17,1.,0.));
#281=DIRECTION('center_axis',(7.79290821971862E-17,1.,0.));
#282=DIRECTION('ref_axis',(-1.,3.69137757776145E-17,0.));
#283=DIRECTION('',(0.707106781186549,0.707106781186547,8.65956056235494E-17));
#284=DIRECTION('center_axis',(-2.56849708485249E-16,1.,-2.40561835287468E-16));
#285=DIRECTION('ref_axis',(-1.,-1.53248314946788E-16,-8.32667268468867E-17));
#286=DIRECTION('center_axis',(-2.56849708485249E-16,1.,-2.40561835287468E-16));
#287=DIRECTION('ref_axis',(-1.,-2.5684970848525E-16,-8.32667268468867E-17));
#288=DIRECTION('',(0.70710678118655,0.707106781186545,-2.46288322022579E-17));
#289=DIRECTION('center_axis',(2.56849708485249E-16,-1.,2.40561835287468E-16));
#290=DIRECTION('ref_axis',(-1.,-5.55111512312579E-17,-8.32667268468868E-17));
#291=DIRECTION('center_axis',(2.56849708485249E-16,-1.,2.40561835287468E-16));
#292=DIRECTION('ref_axis',(-1.,-5.55111512312579E-17,-8.32667268468868E-17));
#293=DIRECTION('center_axis',(2.56849708485249E-16,-1.,2.40561835287468E-16));
#294=DIRECTION('ref_axis',(1.,5.55111512312579E-17,8.32667268468868E-17));
#295=DIRECTION('',(-2.56849708485249E-16,1.,-2.40561835287468E-16));
#296=DIRECTION('center_axis',(2.56849708485249E-16,-1.,2.40561835287468E-16));
#297=DIRECTION('ref_axis',(8.32667268468868E-17,-2.40561835287468E-16,-1.));
#298=DIRECTION('center_axis',(-1.31758489477528E-16,-1.,0.));
#299=DIRECTION('ref_axis',(1.,-1.00942910578288E-16,0.));
#300=DIRECTION('center_axis',(-1.31758489477528E-16,-1.,0.));
#301=DIRECTION('ref_axis',(1.,-1.00942910578288E-16,0.));
#302=DIRECTION('',(1.31758489477528E-16,1.,0.));
#303=DIRECTION('center_axis',(-1.31758489477528E-16,-1.,0.));
#304=DIRECTION('ref_axis',(1.,-1.00942910578288E-16,0.));
#305=DIRECTION('center_axis',(-1.31758489477528E-16,-1.,0.));
#306=DIRECTION('ref_axis',(0.,0.,-1.));
#307=DIRECTION('center_axis',(1.31758489477528E-16,1.,0.));
#308=DIRECTION('ref_axis',(0.,0.,1.));
#309=DIRECTION('center_axis',(-1.31758489477528E-16,-1.,0.));
#310=DIRECTION('ref_axis',(1.,6.18956896086133E-32,-1.2490009027033E-16));
#311=DIRECTION('center_axis',(1.2490009027033E-16,3.48076924558592E-16,
1.));
#312=DIRECTION('ref_axis',(0.833333333333334,0.552770798392566,-2.9649016804889E-16));
#313=DIRECTION('',(1.2490009027033E-16,3.48076924558592E-16,1.));
#314=DIRECTION('center_axis',(1.2490009027033E-16,3.48076924558592E-16,
1.));
#315=DIRECTION('ref_axis',(0.833333333333334,0.552770798392565,-2.9649016804889E-16));
#316=DIRECTION('center_axis',(-1.23259516440783E-31,1.,-3.48076924558592E-16));
#317=DIRECTION('ref_axis',(1.,6.18956896086133E-32,-1.2490009027033E-16));
#318=DIRECTION('',(1.23259516440783E-31,-1.,3.48076924558592E-16));
#319=CARTESIAN_POINT('',(0.,0.,0.));
#320=CARTESIAN_POINT('Origin',(3.84230310358752,-16.842936072097,11.9111826707053));
#321=CARTESIAN_POINT('',(4.78330310358753,-16.842936072097,11.9111826707053));
#322=CARTESIAN_POINT('Origin',(-0.616696896412475,-16.842936072097,11.9111826707053));
#323=CARTESIAN_POINT('',(-5.91669689641247,-16.842936072097,11.9111826707053));
#324=CARTESIAN_POINT('Origin',(-0.616696896412468,-16.842936072097,11.9111826707053));
#325=CARTESIAN_POINT('Origin',(-0.616696896412473,5.85706392790304,11.9111826707053));
#326=CARTESIAN_POINT('',(5.38330310358753,5.55706392790305,11.9111826707053));
#327=CARTESIAN_POINT('',(-6.61669689641248,5.55706392790305,11.9111826707053));
#328=CARTESIAN_POINT('Origin',(-0.616696896412473,5.55706392790305,11.9111826707053));
#329=CARTESIAN_POINT('Origin',(-0.616696896412473,5.55706392790305,11.9111826707053));
#330=CARTESIAN_POINT('',(4.78330310358753,6.15706392790305,11.9111826707053));
#331=CARTESIAN_POINT('',(5.08330310358753,5.85706392790304,11.9111826707053));
#332=CARTESIAN_POINT('Origin',(-0.616696896412473,6.15706392790304,11.9111826707053));
#333=CARTESIAN_POINT('Origin',(-0.616696896412474,-5.34293607209696,11.9111826707053));
#334=CARTESIAN_POINT('',(5.38330310358753,-16.242936072097,11.9111826707053));
#335=CARTESIAN_POINT('',(-6.61669689641248,-16.242936072097,11.9111826707053));
#336=CARTESIAN_POINT('Origin',(-0.616696896412475,-16.242936072097,11.9111826707053));
#337=CARTESIAN_POINT('Origin',(-0.616696896412475,-16.242936072097,11.9111826707053));
#338=CARTESIAN_POINT('',(-6.61669689641248,-5.34293607209696,11.9111826707053));
#339=CARTESIAN_POINT('Origin',(-0.616696896412475,-16.542936072097,11.9111826707053));
#340=CARTESIAN_POINT('',(5.08330310358753,-16.542936072097,11.9111826707053));
#341=CARTESIAN_POINT('Origin',(-0.616696896412467,-17.692936072097,11.9111826707053));
#342=CARTESIAN_POINT('',(4.38330310358753,-17.842936072097,11.9111826707053));
#343=CARTESIAN_POINT('Origin',(-0.616696896412467,-17.842936072097,11.9111826707053));
#344=CARTESIAN_POINT('',(4.68330310358753,-17.542936072097,11.9111826707053));
#345=CARTESIAN_POINT('',(4.53330310358753,-17.692936072097,11.9111826707053));
#346=CARTESIAN_POINT('',(-5.91669689641247,-17.542936072097,11.9111826707053));
#347=CARTESIAN_POINT('Origin',(-0.616696896412468,-17.542936072097,11.9111826707053));
#348=CARTESIAN_POINT('Origin',(-0.616696896412468,-17.542936072097,11.9111826707053));
#349=CARTESIAN_POINT('Origin',(-0.616696896412468,-17.342936072097,11.9111826707053));
#350=CARTESIAN_POINT('',(-5.91669689641247,-17.342936072097,11.9111826707053));
#351=CARTESIAN_POINT('Origin',(-0.616696896412467,-17.842936072097,11.9111826707053));
#352=CARTESIAN_POINT('Origin',(-0.616696896412473,6.65706392790304,11.9111826707053));
#353=CARTESIAN_POINT('',(-6.11669689641248,6.15706392790304,11.9111826707053));
#354=CARTESIAN_POINT('Origin',(-0.616696896412473,6.15706392790304,11.9111826707053));
#355=CARTESIAN_POINT('',(-6.11669689641248,7.15706392790304,11.9111826707053));
#356=CARTESIAN_POINT('',(-6.11669689641248,6.65706392790304,11.9111826707053));
#357=CARTESIAN_POINT('Origin',(-0.616696896412473,7.15706392790304,11.9111826707053));
#358=CARTESIAN_POINT('Origin',(4.58330310358753,6.15706392790304,11.9111826707053));
#359=CARTESIAN_POINT('Origin',(4.58330310358753,7.15706392790304,11.9111826707053));
#360=CARTESIAN_POINT('',(-2.11669689641247,7.15706392790304,11.9111826707053));
#361=CARTESIAN_POINT('Origin',(-0.616696896412469,7.15706392790304,11.9111826707053));
#362=CARTESIAN_POINT('Origin',(-1.36669689641247,26.6595702093497,11.9111826707053));
#363=CARTESIAN_POINT('',(-2.11669689641247,27.157063927903,11.9111826707053));
#364=CARTESIAN_POINT('',(-0.616696896412469,27.157063927903,13.4111826707053));
#365=CARTESIAN_POINT('Ctrl Pts',(-2.11669689641247,27.157063927903,11.9111826707053));
#366=CARTESIAN_POINT('Ctrl Pts',(-2.11669689641247,27.157063927903,12.0188505266103));
#367=CARTESIAN_POINT('Ctrl Pts',(-2.10516410785175,27.175292418038,12.1239901501593));
#368=CARTESIAN_POINT('Ctrl Pts',(-2.06151826237851,27.2327391140397,12.3275159794707));
#369=CARTESIAN_POINT('Ctrl Pts',(-2.0293525779683,27.2713347406306,12.4260661144949));
#370=CARTESIAN_POINT('Ctrl Pts',(-1.90326691642899,27.3913921933532,12.7096475767456));
#371=CARTESIAN_POINT('Ctrl Pts',(-1.77888657427799,27.4760065558369,12.8825421408121));
#372=CARTESIAN_POINT('Ctrl Pts',(-1.54945889536811,27.5441445574169,13.0900672846665));
#373=CARTESIAN_POINT('Ctrl Pts',(-1.46116505827643,27.559532120353,13.1556443640372));
#374=CARTESIAN_POINT('Ctrl Pts',(-1.27295588313033,27.5596081514729,13.2643772335993));
#375=CARTESIAN_POINT('Ctrl Pts',(-1.17304595518425,27.5438176251,13.307542195472));
#376=CARTESIAN_POINT('Ctrl Pts',(-0.980047571245279,27.4792432910929,13.3703870768821));
#377=CARTESIAN_POINT('Ctrl Pts',(-0.864849228123165,27.4148900805546,13.3929458834351));
#378=CARTESIAN_POINT('Ctrl Pts',(-0.719535534701843,27.2901540584895,13.408909249918));
#379=CARTESIAN_POINT('Ctrl Pts',(-0.663320299589682,27.2273513528068,13.4111826707053));
#380=CARTESIAN_POINT('Ctrl Pts',(-0.616696896412469,27.157063927903,13.4111826707053));
#381=CARTESIAN_POINT('',(-0.616696896412469,27.157063927903,10.4111826707053));
#382=CARTESIAN_POINT('',(-0.616696896412469,27.157063927903,11.9111826707053));
#383=CARTESIAN_POINT('Ctrl Pts',(-0.616696896412469,27.157063927903,10.4111826707053));
#384=CARTESIAN_POINT('Ctrl Pts',(-0.663320299589683,27.2273513528068,10.4111826707053));
#385=CARTESIAN_POINT('Ctrl Pts',(-0.719535534701844,27.2901540584895,10.4134560914925));
#386=CARTESIAN_POINT('Ctrl Pts',(-0.864849228123165,27.4148900805546,10.4294194579755));
#387=CARTESIAN_POINT('Ctrl Pts',(-0.980047571245279,27.4792432910929,10.4519782645284));
#388=CARTESIAN_POINT('Ctrl Pts',(-1.17304595518425,27.5438176251,10.5148231459386));
#389=CARTESIAN_POINT('Ctrl Pts',(-1.27295588313033,27.5596081514729,10.5579881078113));
#390=CARTESIAN_POINT('Ctrl Pts',(-1.46116505827643,27.559532120353,10.6667209773734));
#391=CARTESIAN_POINT('Ctrl Pts',(-1.54945889536812,27.5441445574169,10.732298056744));
#392=CARTESIAN_POINT('Ctrl Pts',(-1.77888657427799,27.4760065558369,10.9398232005985));
#393=CARTESIAN_POINT('Ctrl Pts',(-1.90326691642899,27.3913921933532,11.112717764665));
#394=CARTESIAN_POINT('Ctrl Pts',(-2.0293525779683,27.2713347406306,11.3962992269157));
#395=CARTESIAN_POINT('Ctrl Pts',(-2.06151826237851,27.2327391140397,11.4948493619398));
#396=CARTESIAN_POINT('Ctrl Pts',(-2.10516410785175,27.175292418038,11.6983751912513));
#397=CARTESIAN_POINT('Ctrl Pts',(-2.11669689641247,27.157063927903,11.8035148148003));
#398=CARTESIAN_POINT('Ctrl Pts',(-2.11669689641247,27.157063927903,11.9111826707053));
#399=CARTESIAN_POINT('Origin',(0.13330310358753,27.6545576464564,11.9111826707053));
#400=CARTESIAN_POINT('',(0.883303103587533,27.157063927903,11.9111826707053));
#401=CARTESIAN_POINT('Ctrl Pts',(-0.616696896412468,27.157063927903,13.4111826707053));
#402=CARTESIAN_POINT('Ctrl Pts',(-0.570073493235255,27.0867765029993,13.4111826707053));
#403=CARTESIAN_POINT('Ctrl Pts',(-0.513858258123092,27.0239737973166,13.408909249918));
#404=CARTESIAN_POINT('Ctrl Pts',(-0.368544564701775,26.8992377752514,13.3929458834351));
#405=CARTESIAN_POINT('Ctrl Pts',(-0.253346221579661,26.8348845647132,13.3703870768821));
#406=CARTESIAN_POINT('Ctrl Pts',(-0.0603478376406927,26.770310230706,13.307542195472));
#407=CARTESIAN_POINT('Ctrl Pts',(0.0395620903053875,26.7545197043332,13.2643772335993));
#408=CARTESIAN_POINT('Ctrl Pts',(0.227771265451489,26.7545957354531,13.1556443640372));
#409=CARTESIAN_POINT('Ctrl Pts',(0.316065102543177,26.7699832983892,13.0900672846665));
#410=CARTESIAN_POINT('Ctrl Pts',(0.545492781453056,26.8381212999692,12.8825421408121));
#411=CARTESIAN_POINT('Ctrl Pts',(0.669873123604047,26.9227356624529,12.7096475767456));
#412=CARTESIAN_POINT('Ctrl Pts',(0.795958785143363,27.0427931151755,12.4260661144949));
#413=CARTESIAN_POINT('Ctrl Pts',(0.828124469553571,27.0813887417664,12.3275159794707));
#414=CARTESIAN_POINT('Ctrl Pts',(0.87177031502681,27.1388354377681,12.1239901501593));
#415=CARTESIAN_POINT('Ctrl Pts',(0.883303103587531,27.157063927903,12.0188505266103));
#416=CARTESIAN_POINT('Ctrl Pts',(0.883303103587531,27.157063927903,11.9111826707053));
#417=CARTESIAN_POINT('Ctrl Pts',(0.883303103587531,27.157063927903,11.9111826707053));
#418=CARTESIAN_POINT('Ctrl Pts',(0.883303103587531,27.157063927903,11.8035148148003));
#419=CARTESIAN_POINT('Ctrl Pts',(0.871770315026809,27.1388354377681,11.6983751912513));
#420=CARTESIAN_POINT('Ctrl Pts',(0.82812446955357,27.0813887417664,11.4948493619398));
#421=CARTESIAN_POINT('Ctrl Pts',(0.795958785143363,27.0427931151755,11.3962992269157));
#422=CARTESIAN_POINT('Ctrl Pts',(0.669873123604047,26.9227356624529,11.112717764665));
#423=CARTESIAN_POINT('Ctrl Pts',(0.545492781453056,26.8381212999692,10.9398232005985));
#424=CARTESIAN_POINT('Ctrl Pts',(0.316065102543176,26.7699832983892,10.732298056744));
#425=CARTESIAN_POINT('Ctrl Pts',(0.227771265451487,26.7545957354531,10.6667209773734));
#426=CARTESIAN_POINT('Ctrl Pts',(0.0395620903053862,26.7545197043332,10.5579881078113));
#427=CARTESIAN_POINT('Ctrl Pts',(-0.0603478376406932,26.770310230706,10.5148231459386));
#428=CARTESIAN_POINT('Ctrl Pts',(-0.253346221579662,26.8348845647132,10.4519782645284));
#429=CARTESIAN_POINT('Ctrl Pts',(-0.368544564701775,26.8992377752514,10.4294194579755));
#430=CARTESIAN_POINT('Ctrl Pts',(-0.513858258123096,27.0239737973166,10.4134560914925));
#431=CARTESIAN_POINT('Ctrl Pts',(-0.570073493235256,27.0867765029993,10.4111826707053));
#432=CARTESIAN_POINT('Ctrl Pts',(-0.616696896412469,27.157063927903,10.4111826707053));
#433=CARTESIAN_POINT('Origin',(-0.616696896412469,7.15706392790304,11.9111826707053));
#434=CARTESIAN_POINT('',(-2.11669689641247,7.15706392790304,11.9111826707053));
#435=UNCERTAINTY_MEASURE_WITH_UNIT(LENGTH_MEASURE(0.01),#439,
'DISTANCE_ACCURACY_VALUE',
'Maximum model space distance between geometric entities at asserted c
onnectivities');
#436=UNCERTAINTY_MEASURE_WITH_UNIT(LENGTH_MEASURE(0.01),#439,
'DISTANCE_ACCURACY_VALUE',
'Maximum model space distance between geometric entities at asserted c
onnectivities');
#437=(
GEOMETRIC_REPRESENTATION_CONTEXT(3)
GLOBAL_UNCERTAINTY_ASSIGNED_CONTEXT((#435))
GLOBAL_UNIT_ASSIGNED_CONTEXT((#439,#441,#442))
REPRESENTATION_CONTEXT('','3D')
);
#438=(
GEOMETRIC_REPRESENTATION_CONTEXT(3)
GLOBAL_UNCERTAINTY_ASSIGNED_CONTEXT((#436))
GLOBAL_UNIT_ASSIGNED_CONTEXT((#439,#441,#442))
REPRESENTATION_CONTEXT('','3D')
);
#439=(
LENGTH_UNIT()
NAMED_UNIT(*)
SI_UNIT(.MILLI.,.METRE.)
);
#440=(
LENGTH_UNIT()
NAMED_UNIT(*)
SI_UNIT(.CENTI.,.METRE.)
);
#441=(
NAMED_UNIT(*)
PLANE_ANGLE_UNIT()
SI_UNIT($,.RADIAN.)
);
#442=(
NAMED_UNIT(*)
SI_UNIT($,.STERADIAN.)
SOLID_ANGLE_UNIT()
);
#443=SHAPE_DEFINITION_REPRESENTATION(#444,#445);
#444=PRODUCT_DEFINITION_SHAPE('',$,#447);
#445=SHAPE_REPRESENTATION('',(#230),#437);
#446=PRODUCT_DEFINITION_CONTEXT('part definition',#451,'design');
#447=PRODUCT_DEFINITION('KX0099_Shrinkwrap_1','KX0099_Shrinkwrap_1',#448,
#446);
#448=PRODUCT_DEFINITION_FORMATION('',$,#453);
#449=PRODUCT_RELATED_PRODUCT_CATEGORY('KX0099_Shrinkwrap_1',
'KX0099_Shrinkwrap_1',(#453));
#450=APPLICATION_PROTOCOL_DEFINITION('international standard',
'automotive_design',2009,#451);
#451=APPLICATION_CONTEXT(
'Core Data for Automotive Mechanical Design Process');
#452=PRODUCT_CONTEXT('part definition',#451,'mechanical');
#453=PRODUCT('KX0099_Shrinkwrap_1','KX0099_Shrinkwrap_1',$,(#452));
#454=PRESENTATION_STYLE_ASSIGNMENT((#459));
#455=PRESENTATION_STYLE_ASSIGNMENT((#460));
#456=PRESENTATION_STYLE_ASSIGNMENT((#461));
#457=PRESENTATION_STYLE_ASSIGNMENT((#462));
#458=PRESENTATION_STYLE_ASSIGNMENT((#463));
#459=SURFACE_STYLE_USAGE(.BOTH.,#474);
#460=SURFACE_STYLE_USAGE(.BOTH.,#475);
#461=SURFACE_STYLE_USAGE(.BOTH.,#476);
#462=SURFACE_STYLE_USAGE(.BOTH.,#477);
#463=SURFACE_STYLE_USAGE(.BOTH.,#478);
#464=SURFACE_STYLE_RENDERING_WITH_PROPERTIES($,#494,(#469));
#465=SURFACE_STYLE_RENDERING_WITH_PROPERTIES($,#495,(#470));
#466=SURFACE_STYLE_RENDERING_WITH_PROPERTIES($,#496,(#471));
#467=SURFACE_STYLE_RENDERING_WITH_PROPERTIES($,#497,(#472));
#468=SURFACE_STYLE_RENDERING_WITH_PROPERTIES($,#498,(#473));
#469=SURFACE_STYLE_TRANSPARENT(0.);
#470=SURFACE_STYLE_TRANSPARENT(0.);
#471=SURFACE_STYLE_TRANSPARENT(0.);
#472=SURFACE_STYLE_TRANSPARENT(0.);
#473=SURFACE_STYLE_TRANSPARENT(0.);
#474=SURFACE_SIDE_STYLE('',(#479,#464));
#475=SURFACE_SIDE_STYLE('',(#480,#465));
#476=SURFACE_SIDE_STYLE('',(#481,#466));
#477=SURFACE_SIDE_STYLE('',(#482,#467));
#478=SURFACE_SIDE_STYLE('',(#483,#468));
#479=SURFACE_STYLE_FILL_AREA(#484);
#480=SURFACE_STYLE_FILL_AREA(#485);
#481=SURFACE_STYLE_FILL_AREA(#486);
#482=SURFACE_STYLE_FILL_AREA(#487);
#483=SURFACE_STYLE_FILL_AREA(#488);
#484=FILL_AREA_STYLE('',(#489));
#485=FILL_AREA_STYLE('',(#490));
#486=FILL_AREA_STYLE('',(#491));
#487=FILL_AREA_STYLE('',(#492));
#488=FILL_AREA_STYLE('',(#493));
#489=FILL_AREA_STYLE_COLOUR('',#494);
#490=FILL_AREA_STYLE_COLOUR('',#495);
#491=FILL_AREA_STYLE_COLOUR('',#496);
#492=FILL_AREA_STYLE_COLOUR('',#497);
#493=FILL_AREA_STYLE_COLOUR('',#498);
#494=COLOUR_RGB('',0.749019607843137,0.749019607843137,0.749019607843137);
#495=COLOUR_RGB('',0.627450980392157,0.631372549019608,0.537254901960784);
#496=COLOUR_RGB('',1.,0.968627450980392,0.725490196078431);
#497=COLOUR_RGB('',0.494117647058824,0.494117647058824,0.505882352941176);
#498=COLOUR_RGB('',1.,0.,0.);
ENDSEC;
END-ISO-10303-21;
