ISO-10303-21;
HEADER;
/* Generated by software containing ST-Developer
 * from STEP Tools, Inc. (www.steptools.com) 
 */

FILE_DESCRIPTION(
/* description */ (''),
/* implementation_level */ '2;1');

FILE_NAME(
/* name */ 
'E:\\Allgemein\\Inventor Pojekte\\Ger\X\E4te\\IA8003_Shrinkwrap_1.stp',

/* time_stamp */ '2022-03-18T10:30:27+01:00',
/* author */ ('Krieger Anja'),
/* organization */ (''),
/* preprocessor_version */ 'ST-DEVELOPER v18.1',
/* originating_system */ 'Autodesk Inventor 2021',
/* authorisation */ '');

FILE_SCHEMA (('AUTOMOTIVE_DESIGN { 1 0 10303 214 3 1 1 }'));
ENDSEC;

DATA;
#10=MECHANICAL_DESIGN_GEOMETRIC_PRESENTATION_REPRESENTATION('',(#190,#191,
#192,#193,#194,#195,#196,#197,#198,#199,#200,#201,#202,#203,#204),#456);
#11=SHAPE_REPRESENTATION_RELATIONSHIP('SRR','None',#463,#12);
#12=ADVANCED_BREP_SHAPE_REPRESENTATION('',(#13),#455);
#13=MANIFOLD_SOLID_BREP('Volumenk\X\F6rper1',#219);
#14=B_SPLINE_CURVE_WITH_KNOTS('',3,(#383,#384,#385,#386,#387,#388,#389,
#390,#391,#392,#393,#394,#395,#396,#397,#398),.UNSPECIFIED.,.F.,.F.,(4,
2,2,2,2,2,2,4),(0.490981430906193,0.543893175335496,0.596804919764799,0.702628408623406,
0.752624565460522,0.802620722297639,0.857962966701061,0.893294579365903),
 .UNSPECIFIED.);
#15=B_SPLINE_CURVE_WITH_KNOTS('',3,(#401,#402,#403,#404,#405,#406,#407,
#408,#409,#410,#411,#412,#413,#414,#415,#416),.UNSPECIFIED.,.F.,.F.,(4,
2,2,2,2,2,2,4),(0.0886682824464827,0.123999895111325,0.179342139514747,
0.229338296351864,0.279334453188981,0.385157942047587,0.43806968647689,
0.490981430906193),.UNSPECIFIED.);
#16=B_SPLINE_CURVE_WITH_KNOTS('',3,(#419,#420,#421,#422,#423,#424,#425,
#426,#427,#428,#429,#430,#431,#432,#433,#434),.UNSPECIFIED.,.F.,.F.,(4,
2,2,2,2,2,2,4),(1.07063114425887,1.10596275692371,1.16130500132713,1.21130115816425,
1.26129731500137,1.36712080385997,1.42003254828928,1.47294429271858),
 .UNSPECIFIED.);
#17=B_SPLINE_CURVE_WITH_KNOTS('',3,(#435,#436,#437,#438,#439,#440,#441,
#442,#443,#444,#445,#446,#447,#448,#449,#450),.UNSPECIFIED.,.F.,.F.,(4,
2,2,2,2,2,2,4),(1.47294429271858,1.52585603714788,1.57876778157719,1.68459127043579,
1.73458742727291,1.78458358411002,1.83992582851345,1.87525744117829),
 .UNSPECIFIED.);
#18=CONICAL_SURFACE('',#258,14.5,0.785398163397451);
#19=CONICAL_SURFACE('',#264,14.5,0.785398163397449);
#20=TOROIDAL_SURFACE('',#248,13.,0.5);
#21=TOROIDAL_SURFACE('',#253,4.8,0.2);
#22=LINE('',#349,#29);
#23=LINE('',#366,#30);
#24=LINE('',#369,#31);
#25=LINE('',#376,#32);
#26=LINE('',#379,#33);
#27=LINE('',#400,#34);
#28=LINE('',#452,#35);
#29=VECTOR('',#284,13.5);
#30=VECTOR('',#309,5.);
#31=VECTOR('',#312,14.5);
#32=VECTOR('',#321,15.);
#33=VECTOR('',#326,14.5);
#34=VECTOR('',#329,10.);
#35=VECTOR('',#334,2.45);
#36=CYLINDRICAL_SURFACE('',#244,13.5);
#37=CYLINDRICAL_SURFACE('',#257,5.);
#38=CYLINDRICAL_SURFACE('',#262,15.);
#39=CYLINDRICAL_SURFACE('',#265,1.5);
#40=CYLINDRICAL_SURFACE('',#266,1.5);
#41=CYLINDRICAL_SURFACE('',#267,2.45);
#42=FACE_BOUND('',#61,.T.);
#43=FACE_BOUND('',#65,.T.);
#44=FACE_BOUND('',#70,.T.);
#45=FACE_OUTER_BOUND('',#59,.T.);
#46=FACE_OUTER_BOUND('',#60,.T.);
#47=FACE_OUTER_BOUND('',#62,.T.);
#48=FACE_OUTER_BOUND('',#63,.T.);
#49=FACE_OUTER_BOUND('',#64,.T.);
#50=FACE_OUTER_BOUND('',#66,.T.);
#51=FACE_OUTER_BOUND('',#67,.T.);
#52=FACE_OUTER_BOUND('',#68,.T.);
#53=FACE_OUTER_BOUND('',#69,.T.);
#54=FACE_OUTER_BOUND('',#71,.T.);
#55=FACE_OUTER_BOUND('',#72,.T.);
#56=FACE_OUTER_BOUND('',#73,.T.);
#57=FACE_OUTER_BOUND('',#74,.T.);
#58=FACE_OUTER_BOUND('',#75,.T.);
#59=EDGE_LOOP('',(#134));
#60=EDGE_LOOP('',(#135));
#61=EDGE_LOOP('',(#136));
#62=EDGE_LOOP('',(#137,#138,#139,#140,#141));
#63=EDGE_LOOP('',(#142,#143,#144,#145,#146));
#64=EDGE_LOOP('',(#147));
#65=EDGE_LOOP('',(#148));
#66=EDGE_LOOP('',(#149,#150,#151,#152,#153));
#67=EDGE_LOOP('',(#154,#155,#156,#157,#158));
#68=EDGE_LOOP('',(#159,#160,#161,#162));
#69=EDGE_LOOP('',(#163));
#70=EDGE_LOOP('',(#164));
#71=EDGE_LOOP('',(#165,#166,#167,#168));
#72=EDGE_LOOP('',(#169,#170,#171,#172));
#73=EDGE_LOOP('',(#173,#174,#175));
#74=EDGE_LOOP('',(#176,#177,#178));
#75=EDGE_LOOP('',(#179,#180,#181,#182,#183,#184,#185));
#76=CIRCLE('',#240,14.);
#77=CIRCLE('',#242,13.);
#78=CIRCLE('',#243,5.);
#79=CIRCLE('',#245,13.5);
#80=CIRCLE('',#246,13.5);
#81=CIRCLE('',#247,13.5);
#82=CIRCLE('',#249,0.5);
#83=CIRCLE('',#251,4.8);
#84=CIRCLE('',#252,2.45);
#85=CIRCLE('',#254,0.2);
#86=CIRCLE('',#255,5.);
#87=CIRCLE('',#256,5.);
#88=CIRCLE('',#259,15.);
#89=CIRCLE('',#261,14.);
#90=CIRCLE('',#263,15.);
#91=VERTEX_POINT('',#337);
#92=VERTEX_POINT('',#340);
#93=VERTEX_POINT('',#342);
#94=VERTEX_POINT('',#345);
#95=VERTEX_POINT('',#346);
#96=VERTEX_POINT('',#348);
#97=VERTEX_POINT('',#355);
#98=VERTEX_POINT('',#357);
#99=VERTEX_POINT('',#360);
#100=VERTEX_POINT('',#362);
#101=VERTEX_POINT('',#368);
#102=VERTEX_POINT('',#372);
#103=VERTEX_POINT('',#375);
#104=VERTEX_POINT('',#381);
#105=VERTEX_POINT('',#382);
#106=VERTEX_POINT('',#399);
#107=VERTEX_POINT('',#418);
#108=EDGE_CURVE('',#91,#91,#76,.T.);
#109=EDGE_CURVE('',#92,#92,#77,.T.);
#110=EDGE_CURVE('',#93,#93,#78,.T.);
#111=EDGE_CURVE('',#94,#95,#79,.T.);
#112=EDGE_CURVE('',#94,#96,#22,.T.);
#113=EDGE_CURVE('',#96,#96,#80,.T.);
#114=EDGE_CURVE('',#95,#94,#81,.T.);
#115=EDGE_CURVE('',#92,#95,#82,.T.);
#116=EDGE_CURVE('',#97,#97,#83,.T.);
#117=EDGE_CURVE('',#98,#98,#84,.T.);
#118=EDGE_CURVE('',#97,#99,#85,.T.);
#119=EDGE_CURVE('',#99,#100,#86,.T.);
#120=EDGE_CURVE('',#100,#99,#87,.T.);
#121=EDGE_CURVE('',#100,#93,#23,.T.);
#122=EDGE_CURVE('',#91,#101,#24,.T.);
#123=EDGE_CURVE('',#101,#101,#88,.T.);
#124=EDGE_CURVE('',#102,#102,#89,.T.);
#125=EDGE_CURVE('',#101,#103,#25,.T.);
#126=EDGE_CURVE('',#103,#103,#90,.T.);
#127=EDGE_CURVE('',#102,#103,#26,.T.);
#128=EDGE_CURVE('',#104,#105,#14,.T.);
#129=EDGE_CURVE('',#105,#106,#27,.T.);
#130=EDGE_CURVE('',#106,#104,#15,.T.);
#131=EDGE_CURVE('',#105,#107,#16,.T.);
#132=EDGE_CURVE('',#107,#106,#17,.T.);
#133=EDGE_CURVE('',#107,#98,#28,.T.);
#134=ORIENTED_EDGE('',*,*,#108,.F.);
#135=ORIENTED_EDGE('',*,*,#109,.F.);
#136=ORIENTED_EDGE('',*,*,#110,.T.);
#137=ORIENTED_EDGE('',*,*,#111,.F.);
#138=ORIENTED_EDGE('',*,*,#112,.T.);
#139=ORIENTED_EDGE('',*,*,#113,.T.);
#140=ORIENTED_EDGE('',*,*,#112,.F.);
#141=ORIENTED_EDGE('',*,*,#114,.F.);
#142=ORIENTED_EDGE('',*,*,#109,.T.);
#143=ORIENTED_EDGE('',*,*,#115,.T.);
#144=ORIENTED_EDGE('',*,*,#114,.T.);
#145=ORIENTED_EDGE('',*,*,#111,.T.);
#146=ORIENTED_EDGE('',*,*,#115,.F.);
#147=ORIENTED_EDGE('',*,*,#116,.F.);
#148=ORIENTED_EDGE('',*,*,#117,.T.);
#149=ORIENTED_EDGE('',*,*,#116,.T.);
#150=ORIENTED_EDGE('',*,*,#118,.T.);
#151=ORIENTED_EDGE('',*,*,#119,.T.);
#152=ORIENTED_EDGE('',*,*,#120,.T.);
#153=ORIENTED_EDGE('',*,*,#118,.F.);
#154=ORIENTED_EDGE('',*,*,#120,.F.);
#155=ORIENTED_EDGE('',*,*,#121,.T.);
#156=ORIENTED_EDGE('',*,*,#110,.F.);
#157=ORIENTED_EDGE('',*,*,#121,.F.);
#158=ORIENTED_EDGE('',*,*,#119,.F.);
#159=ORIENTED_EDGE('',*,*,#108,.T.);
#160=ORIENTED_EDGE('',*,*,#122,.T.);
#161=ORIENTED_EDGE('',*,*,#123,.T.);
#162=ORIENTED_EDGE('',*,*,#122,.F.);
#163=ORIENTED_EDGE('',*,*,#124,.F.);
#164=ORIENTED_EDGE('',*,*,#113,.F.);
#165=ORIENTED_EDGE('',*,*,#123,.F.);
#166=ORIENTED_EDGE('',*,*,#125,.T.);
#167=ORIENTED_EDGE('',*,*,#126,.F.);
#168=ORIENTED_EDGE('',*,*,#125,.F.);
#169=ORIENTED_EDGE('',*,*,#124,.T.);
#170=ORIENTED_EDGE('',*,*,#127,.T.);
#171=ORIENTED_EDGE('',*,*,#126,.T.);
#172=ORIENTED_EDGE('',*,*,#127,.F.);
#173=ORIENTED_EDGE('',*,*,#128,.T.);
#174=ORIENTED_EDGE('',*,*,#129,.T.);
#175=ORIENTED_EDGE('',*,*,#130,.T.);
#176=ORIENTED_EDGE('',*,*,#131,.T.);
#177=ORIENTED_EDGE('',*,*,#132,.T.);
#178=ORIENTED_EDGE('',*,*,#129,.F.);
#179=ORIENTED_EDGE('',*,*,#131,.F.);
#180=ORIENTED_EDGE('',*,*,#128,.F.);
#181=ORIENTED_EDGE('',*,*,#130,.F.);
#182=ORIENTED_EDGE('',*,*,#132,.F.);
#183=ORIENTED_EDGE('',*,*,#133,.T.);
#184=ORIENTED_EDGE('',*,*,#117,.F.);
#185=ORIENTED_EDGE('',*,*,#133,.F.);
#186=PLANE('',#239);
#187=PLANE('',#241);
#188=PLANE('',#250);
#189=PLANE('',#260);
#190=STYLED_ITEM('',(#472),#205);
#191=STYLED_ITEM('',(#473),#206);
#192=STYLED_ITEM('',(#473),#207);
#193=STYLED_ITEM('',(#473),#208);
#194=STYLED_ITEM('',(#474),#209);
#195=STYLED_ITEM('',(#474),#210);
#196=STYLED_ITEM('',(#474),#211);
#197=STYLED_ITEM('',(#472),#212);
#198=STYLED_ITEM('',(#472),#213);
#199=STYLED_ITEM('',(#472),#214);
#200=STYLED_ITEM('',(#472),#215);
#201=STYLED_ITEM('',(#475),#216);
#202=STYLED_ITEM('',(#475),#217);
#203=STYLED_ITEM('',(#475),#218);
#204=STYLED_ITEM('',(#472),#13);
#205=ADVANCED_FACE('',(#45),#186,.T.);
#206=ADVANCED_FACE('',(#46,#42),#187,.T.);
#207=ADVANCED_FACE('',(#47),#36,.T.);
#208=ADVANCED_FACE('',(#48),#20,.T.);
#209=ADVANCED_FACE('',(#49,#43),#188,.T.);
#210=ADVANCED_FACE('',(#50),#21,.T.);
#211=ADVANCED_FACE('',(#51),#37,.T.);
#212=ADVANCED_FACE('',(#52),#18,.T.);
#213=ADVANCED_FACE('',(#53,#44),#189,.F.);
#214=ADVANCED_FACE('',(#54),#38,.T.);
#215=ADVANCED_FACE('',(#55),#19,.T.);
#216=ADVANCED_FACE('',(#56),#39,.F.);
#217=ADVANCED_FACE('',(#57),#40,.T.);
#218=ADVANCED_FACE('',(#58),#41,.T.);
#219=CLOSED_SHELL('',(#205,#206,#207,#208,#209,#210,#211,#212,#213,#214,
#215,#216,#217,#218));
#220=DERIVED_UNIT_ELEMENT(#222,1.);
#221=DERIVED_UNIT_ELEMENT(#458,3.);
#222=(
MASS_UNIT()
NAMED_UNIT(*)
SI_UNIT($,.GRAM.)
);
#223=DERIVED_UNIT((#220,#221));
#224=MEASURE_REPRESENTATION_ITEM('density measure',
POSITIVE_RATIO_MEASURE(1.),#223);
#225=PROPERTY_DEFINITION_REPRESENTATION(#230,#227);
#226=PROPERTY_DEFINITION_REPRESENTATION(#231,#228);
#227=REPRESENTATION('material name',(#229),#455);
#228=REPRESENTATION('density',(#224),#455);
#229=DESCRIPTIVE_REPRESENTATION_ITEM('Allgemein','Allgemein');
#230=PROPERTY_DEFINITION('material property','material name',#465);
#231=PROPERTY_DEFINITION('material property','density of part',#465);
#232=DATE_TIME_ROLE('creation_date');
#233=APPLIED_DATE_AND_TIME_ASSIGNMENT(#234,#232,(#465));
#234=DATE_AND_TIME(#235,#236);
#235=CALENDAR_DATE(2022,18,3);
#236=LOCAL_TIME(0,0,0.,#237);
#237=COORDINATED_UNIVERSAL_TIME_OFFSET(0,0,.BEHIND.);
#238=AXIS2_PLACEMENT_3D('placement',#335,#268,#269);
#239=AXIS2_PLACEMENT_3D('',#336,#270,#271);
#240=AXIS2_PLACEMENT_3D('',#338,#272,#273);
#241=AXIS2_PLACEMENT_3D('',#339,#274,#275);
#242=AXIS2_PLACEMENT_3D('',#341,#276,#277);
#243=AXIS2_PLACEMENT_3D('',#343,#278,#279);
#244=AXIS2_PLACEMENT_3D('',#344,#280,#281);
#245=AXIS2_PLACEMENT_3D('',#347,#282,#283);
#246=AXIS2_PLACEMENT_3D('',#350,#285,#286);
#247=AXIS2_PLACEMENT_3D('',#351,#287,#288);
#248=AXIS2_PLACEMENT_3D('',#352,#289,#290);
#249=AXIS2_PLACEMENT_3D('',#353,#291,#292);
#250=AXIS2_PLACEMENT_3D('',#354,#293,#294);
#251=AXIS2_PLACEMENT_3D('',#356,#295,#296);
#252=AXIS2_PLACEMENT_3D('',#358,#297,#298);
#253=AXIS2_PLACEMENT_3D('',#359,#299,#300);
#254=AXIS2_PLACEMENT_3D('',#361,#301,#302);
#255=AXIS2_PLACEMENT_3D('',#363,#303,#304);
#256=AXIS2_PLACEMENT_3D('',#364,#305,#306);
#257=AXIS2_PLACEMENT_3D('',#365,#307,#308);
#258=AXIS2_PLACEMENT_3D('',#367,#310,#311);
#259=AXIS2_PLACEMENT_3D('',#370,#313,#314);
#260=AXIS2_PLACEMENT_3D('',#371,#315,#316);
#261=AXIS2_PLACEMENT_3D('',#373,#317,#318);
#262=AXIS2_PLACEMENT_3D('',#374,#319,#320);
#263=AXIS2_PLACEMENT_3D('',#377,#322,#323);
#264=AXIS2_PLACEMENT_3D('',#378,#324,#325);
#265=AXIS2_PLACEMENT_3D('',#380,#327,#328);
#266=AXIS2_PLACEMENT_3D('',#417,#330,#331);
#267=AXIS2_PLACEMENT_3D('',#451,#332,#333);
#268=DIRECTION('axis',(0.,0.,1.));
#269=DIRECTION('refdir',(1.,0.,0.));
#270=DIRECTION('center_axis',(0.,0.,1.));
#271=DIRECTION('ref_axis',(1.,0.,0.));
#272=DIRECTION('center_axis',(0.,0.,-1.));
#273=DIRECTION('ref_axis',(-1.,0.,0.));
#274=DIRECTION('center_axis',(0.,0.,-1.));
#275=DIRECTION('ref_axis',(1.,0.,0.));
#276=DIRECTION('center_axis',(0.,0.,1.));
#277=DIRECTION('ref_axis',(-1.,0.,0.));
#278=DIRECTION('center_axis',(0.,0.,1.));
#279=DIRECTION('ref_axis',(-1.,0.,0.));
#280=DIRECTION('center_axis',(0.,0.,-1.));
#281=DIRECTION('ref_axis',(-1.,0.,0.));
#282=DIRECTION('center_axis',(0.,0.,-1.));
#283=DIRECTION('ref_axis',(-1.,0.,0.));
#284=DIRECTION('',(0.,0.,1.));
#285=DIRECTION('center_axis',(0.,0.,-1.));
#286=DIRECTION('ref_axis',(-1.,0.,0.));
#287=DIRECTION('center_axis',(0.,0.,-1.));
#288=DIRECTION('ref_axis',(-1.,0.,0.));
#289=DIRECTION('center_axis',(0.,0.,-1.));
#290=DIRECTION('ref_axis',(1.,0.,0.));
#291=DIRECTION('center_axis',(0.,1.,0.));
#292=DIRECTION('ref_axis',(-1.,0.,0.));
#293=DIRECTION('center_axis',(0.,0.,-1.));
#294=DIRECTION('ref_axis',(1.,0.,0.));
#295=DIRECTION('center_axis',(0.,0.,1.));
#296=DIRECTION('ref_axis',(-1.,0.,0.));
#297=DIRECTION('center_axis',(0.,0.,1.));
#298=DIRECTION('ref_axis',(-1.,0.,0.));
#299=DIRECTION('center_axis',(0.,0.,-1.));
#300=DIRECTION('ref_axis',(1.,0.,0.));
#301=DIRECTION('center_axis',(0.,1.,0.));
#302=DIRECTION('ref_axis',(-1.,0.,0.));
#303=DIRECTION('center_axis',(0.,0.,-1.));
#304=DIRECTION('ref_axis',(-1.,0.,0.));
#305=DIRECTION('center_axis',(0.,0.,-1.));
#306=DIRECTION('ref_axis',(-1.,0.,0.));
#307=DIRECTION('center_axis',(0.,0.,-1.));
#308=DIRECTION('ref_axis',(-1.,0.,0.));
#309=DIRECTION('',(0.,0.,1.));
#310=DIRECTION('center_axis',(0.,0.,-1.));
#311=DIRECTION('ref_axis',(-1.,0.,0.));
#312=DIRECTION('',(0.707106781186549,8.65956056235495E-17,-0.707106781186546));
#313=DIRECTION('center_axis',(0.,0.,1.));
#314=DIRECTION('ref_axis',(-1.,0.,0.));
#315=DIRECTION('center_axis',(0.,0.,1.));
#316=DIRECTION('ref_axis',(1.,0.,0.));
#317=DIRECTION('center_axis',(0.,0.,1.));
#318=DIRECTION('ref_axis',(-1.,0.,0.));
#319=DIRECTION('center_axis',(0.,0.,1.));
#320=DIRECTION('ref_axis',(-1.,0.,0.));
#321=DIRECTION('',(0.,0.,-1.));
#322=DIRECTION('center_axis',(0.,0.,-1.));
#323=DIRECTION('ref_axis',(-1.,0.,0.));
#324=DIRECTION('center_axis',(0.,0.,1.));
#325=DIRECTION('ref_axis',(-1.,0.,0.));
#326=DIRECTION('',(0.707106781186548,-8.65956056235494E-17,0.707106781186547));
#327=DIRECTION('center_axis',(0.,1.,0.));
#328=DIRECTION('ref_axis',(0.816666666666667,0.,-0.577109656439359));
#329=DIRECTION('',(0.,1.,0.));
#330=DIRECTION('center_axis',(0.,1.,0.));
#331=DIRECTION('ref_axis',(0.816666666666667,0.,-0.577109656439359));
#332=DIRECTION('center_axis',(0.,0.,-1.));
#333=DIRECTION('ref_axis',(1.,0.,0.));
#334=DIRECTION('',(0.,0.,1.));
#335=CARTESIAN_POINT('',(0.,0.,0.));
#336=CARTESIAN_POINT('Origin',(43.693378649853,55.5,65.1865979200203));
#337=CARTESIAN_POINT('',(57.693378649853,55.5,65.1865979200203));
#338=CARTESIAN_POINT('Origin',(43.693378649853,55.5,65.1865979200203));
#339=CARTESIAN_POINT('Origin',(43.693378649853,55.5,15.1865979200203));
#340=CARTESIAN_POINT('',(30.693378649853,55.5,15.1865979200203));
#341=CARTESIAN_POINT('Origin',(43.693378649853,55.5,15.1865979200203));
#342=CARTESIAN_POINT('',(48.693378649853,55.5,15.1865979200203));
#343=CARTESIAN_POINT('Origin',(43.693378649853,55.5,15.1865979200203));
#344=CARTESIAN_POINT('Origin',(43.693378649853,55.5,17.1865979200203));
#345=CARTESIAN_POINT('',(57.193378649853,55.5,15.6865979200203));
#346=CARTESIAN_POINT('',(30.193378649853,55.5,15.6865979200203));
#347=CARTESIAN_POINT('Origin',(43.693378649853,55.5,15.6865979200203));
#348=CARTESIAN_POINT('',(57.193378649853,55.5,16.1865979200203));
#349=CARTESIAN_POINT('',(57.193378649853,55.5,17.1865979200203));
#350=CARTESIAN_POINT('Origin',(43.693378649853,55.5,16.1865979200203));
#351=CARTESIAN_POINT('Origin',(43.693378649853,55.5,15.6865979200203));
#352=CARTESIAN_POINT('Origin',(43.693378649853,55.5,15.6865979200203));
#353=CARTESIAN_POINT('Origin',(30.693378649853,55.5,15.6865979200203));
#354=CARTESIAN_POINT('Origin',(43.693378649853,55.5,14.1865979200203));
#355=CARTESIAN_POINT('',(38.893378649853,55.5,14.1865979200203));
#356=CARTESIAN_POINT('Origin',(43.693378649853,55.5,14.1865979200203));
#357=CARTESIAN_POINT('',(41.243378649853,55.5,14.1865979200203));
#358=CARTESIAN_POINT('Origin',(43.693378649853,55.5,14.1865979200203));
#359=CARTESIAN_POINT('Origin',(43.693378649853,55.5,14.3865979200203));
#360=CARTESIAN_POINT('',(38.693378649853,55.5,14.3865979200203));
#361=CARTESIAN_POINT('Origin',(38.893378649853,55.5,14.3865979200203));
#362=CARTESIAN_POINT('',(48.693378649853,55.5,14.3865979200203));
#363=CARTESIAN_POINT('Origin',(43.693378649853,55.5,14.3865979200203));
#364=CARTESIAN_POINT('Origin',(43.693378649853,55.5,14.3865979200203));
#365=CARTESIAN_POINT('Origin',(43.693378649853,55.5,17.1865979200203));
#366=CARTESIAN_POINT('',(48.693378649853,55.5,17.1865979200203));
#367=CARTESIAN_POINT('Origin',(43.693378649853,55.5,64.6865979200203));
#368=CARTESIAN_POINT('',(58.693378649853,55.5,64.1865979200203));
#369=CARTESIAN_POINT('',(58.193378649853,55.5,64.6865979200203));
#370=CARTESIAN_POINT('Origin',(43.693378649853,55.5,64.1865979200203));
#371=CARTESIAN_POINT('Origin',(43.693378649853,55.5,16.1865979200203));
#372=CARTESIAN_POINT('',(57.693378649853,55.5,16.1865979200203));
#373=CARTESIAN_POINT('Origin',(43.693378649853,55.5,16.1865979200203));
#374=CARTESIAN_POINT('Origin',(43.693378649853,55.5,16.1865979200203));
#375=CARTESIAN_POINT('',(58.693378649853,55.5,17.1865979200203));
#376=CARTESIAN_POINT('',(58.693378649853,55.5,16.1865979200203));
#377=CARTESIAN_POINT('Origin',(43.693378649853,55.5,17.1865979200203));
#378=CARTESIAN_POINT('Origin',(43.693378649853,55.5,16.6865979200203));
#379=CARTESIAN_POINT('',(58.193378649853,55.5,16.6865979200203));
#380=CARTESIAN_POINT('Origin',(44.918378649853,55.5,-6.47906656463877));
#381=CARTESIAN_POINT('',(46.143378649853,55.5,-5.61340207997973));
#382=CARTESIAN_POINT('',(43.693378649853,53.05,-5.61340207997973));
#383=CARTESIAN_POINT('Ctrl Pts',(46.143378649853,55.5,-5.61340207997972));
#384=CARTESIAN_POINT('Ctrl Pts',(46.143378649853,55.323627518569,-5.61340207997972));
#385=CARTESIAN_POINT('Ctrl Pts',(46.1243765476175,55.1505540395182,-5.58522975814033));
#386=CARTESIAN_POINT('Ctrl Pts',(46.0520028199157,54.8152697023492,-5.49509376010634));
#387=CARTESIAN_POINT('Ctrl Pts',(45.9985592775537,54.6528350533486,-5.43402264017151));
#388=CARTESIAN_POINT('Ctrl Pts',(45.7893098997831,54.1863171218859,-5.24330628907991));
#389=CARTESIAN_POINT('Ctrl Pts',(45.5830890422061,53.902924774696,-5.1080454005684));
#390=CARTESIAN_POINT('Ctrl Pts',(45.2040527161951,53.5642933863763,-5.00110906636664));
#391=CARTESIAN_POINT('Ctrl Pts',(45.0580676672293,53.4574522432711,-4.97753430164009));
#392=CARTESIAN_POINT('Ctrl Pts',(44.7475226172795,53.2811809581971,-4.98076072914551));
#393=CARTESIAN_POINT('Ctrl Pts',(44.5829848452867,53.2117269827036,-5.00835102909597));
#394=CARTESIAN_POINT('Ctrl Pts',(44.2647598207017,53.1111154590521,-5.11744287262397));
#395=CARTESIAN_POINT('Ctrl Pts',(44.0746753939991,53.0758259462896,-5.22527044453325));
#396=CARTESIAN_POINT('Ctrl Pts',(43.8469630665106,53.0531934036714,-5.42272328303265));
#397=CARTESIAN_POINT('Ctrl Pts',(43.7643206845621,53.05,-5.51301215517777));
#398=CARTESIAN_POINT('Ctrl Pts',(43.693378649853,53.05,-5.61340207997973));
#399=CARTESIAN_POINT('',(43.693378649853,57.95,-5.61340207997973));
#400=CARTESIAN_POINT('',(43.693378649853,55.5,-5.61340207997973));
#401=CARTESIAN_POINT('Ctrl Pts',(43.693378649853,57.95,-5.61340207997973));
#402=CARTESIAN_POINT('Ctrl Pts',(43.7643206845621,57.95,-5.51301215517777));
#403=CARTESIAN_POINT('Ctrl Pts',(43.8469630665106,57.9468065963286,-5.42272328303266));
#404=CARTESIAN_POINT('Ctrl Pts',(44.0746753939991,57.9241740537104,-5.22527044453325));
#405=CARTESIAN_POINT('Ctrl Pts',(44.2647598207017,57.8888845409479,-5.11744287262397));
#406=CARTESIAN_POINT('Ctrl Pts',(44.5829848452867,57.7882730172964,-5.00835102909597));
#407=CARTESIAN_POINT('Ctrl Pts',(44.7475226172795,57.718819041803,-4.98076072914551));
#408=CARTESIAN_POINT('Ctrl Pts',(45.0580676672293,57.5425477567289,-4.97753430164009));
#409=CARTESIAN_POINT('Ctrl Pts',(45.2040527161951,57.4357066136237,-5.00110906636664));
#410=CARTESIAN_POINT('Ctrl Pts',(45.5830890422061,57.097075225304,-5.1080454005684));
#411=CARTESIAN_POINT('Ctrl Pts',(45.7893098997831,56.8136828781141,-5.24330628907991));
#412=CARTESIAN_POINT('Ctrl Pts',(45.9985592775537,56.3471649466514,-5.43402264017151));
#413=CARTESIAN_POINT('Ctrl Pts',(46.0520028199157,56.1847302976508,-5.49509376010634));
#414=CARTESIAN_POINT('Ctrl Pts',(46.1243765476175,55.8494459604818,-5.58522975814033));
#415=CARTESIAN_POINT('Ctrl Pts',(46.143378649853,55.676372481431,-5.61340207997972));
#416=CARTESIAN_POINT('Ctrl Pts',(46.143378649853,55.5,-5.61340207997972));
#417=CARTESIAN_POINT('Origin',(42.468378649853,55.5,-4.74773759532069));
#418=CARTESIAN_POINT('',(41.243378649853,55.5,-5.61340207997973));
#419=CARTESIAN_POINT('Ctrl Pts',(43.693378649853,53.05,-5.61340207997973));
#420=CARTESIAN_POINT('Ctrl Pts',(43.6224366151439,53.05,-5.71379200478168));
#421=CARTESIAN_POINT('Ctrl Pts',(43.5397942331954,53.0531934036714,-5.8040808769268));
#422=CARTESIAN_POINT('Ctrl Pts',(43.3120819057069,53.0758259462896,-6.00153371542621));
#423=CARTESIAN_POINT('Ctrl Pts',(43.1219974790043,53.1111154590521,-6.10936128733549));
#424=CARTESIAN_POINT('Ctrl Pts',(42.8037724544193,53.2117269827036,-6.21845313086349));
#425=CARTESIAN_POINT('Ctrl Pts',(42.6392346824264,53.2811809581971,-6.24604343081395));
#426=CARTESIAN_POINT('Ctrl Pts',(42.3286896324767,53.4574522432711,-6.24926985831937));
#427=CARTESIAN_POINT('Ctrl Pts',(42.1827045835109,53.5642933863763,-6.22569509359282));
#428=CARTESIAN_POINT('Ctrl Pts',(41.8036682574999,53.902924774696,-6.11875875939106));
#429=CARTESIAN_POINT('Ctrl Pts',(41.5974473999229,54.1863171218859,-5.98349787087955));
#430=CARTESIAN_POINT('Ctrl Pts',(41.3881980221523,54.6528350533486,-5.79278151978794));
#431=CARTESIAN_POINT('Ctrl Pts',(41.3347544797903,54.8152697023492,-5.73171039985312));
#432=CARTESIAN_POINT('Ctrl Pts',(41.2623807520885,55.1505540395182,-5.64157440181913));
#433=CARTESIAN_POINT('Ctrl Pts',(41.243378649853,55.323627518569,-5.61340207997974));
#434=CARTESIAN_POINT('Ctrl Pts',(41.243378649853,55.5,-5.61340207997974));
#435=CARTESIAN_POINT('Ctrl Pts',(41.243378649853,55.5,-5.61340207997974));
#436=CARTESIAN_POINT('Ctrl Pts',(41.243378649853,55.676372481431,-5.61340207997974));
#437=CARTESIAN_POINT('Ctrl Pts',(41.2623807520885,55.8494459604818,-5.64157440181912));
#438=CARTESIAN_POINT('Ctrl Pts',(41.3347544797903,56.1847302976508,-5.73171039985312));
#439=CARTESIAN_POINT('Ctrl Pts',(41.3881980221523,56.3471649466514,-5.79278151978795));
#440=CARTESIAN_POINT('Ctrl Pts',(41.5974473999229,56.8136828781141,-5.98349787087955));
#441=CARTESIAN_POINT('Ctrl Pts',(41.8036682574999,57.097075225304,-6.11875875939106));
#442=CARTESIAN_POINT('Ctrl Pts',(42.1827045835109,57.4357066136237,-6.22569509359282));
#443=CARTESIAN_POINT('Ctrl Pts',(42.3286896324767,57.5425477567289,-6.24926985831937));
#444=CARTESIAN_POINT('Ctrl Pts',(42.6392346824264,57.718819041803,-6.24604343081395));
#445=CARTESIAN_POINT('Ctrl Pts',(42.8037724544193,57.7882730172964,-6.21845313086349));
#446=CARTESIAN_POINT('Ctrl Pts',(43.1219974790043,57.8888845409479,-6.10936128733549));
#447=CARTESIAN_POINT('Ctrl Pts',(43.3120819057069,57.9241740537104,-6.00153371542621));
#448=CARTESIAN_POINT('Ctrl Pts',(43.5397942331954,57.9468065963286,-5.80408087692681));
#449=CARTESIAN_POINT('Ctrl Pts',(43.6224366151439,57.95,-5.71379200478169));
#450=CARTESIAN_POINT('Ctrl Pts',(43.693378649853,57.95,-5.61340207997973));
#451=CARTESIAN_POINT('Origin',(43.693378649853,55.5,24.3865979200203));
#452=CARTESIAN_POINT('',(41.243378649853,55.5,24.3865979200203));
#453=UNCERTAINTY_MEASURE_WITH_UNIT(LENGTH_MEASURE(0.01),#457,
'DISTANCE_ACCURACY_VALUE',
'Maximum model space distance between geometric entities at asserted c
onnectivities');
#454=UNCERTAINTY_MEASURE_WITH_UNIT(LENGTH_MEASURE(0.01),#457,
'DISTANCE_ACCURACY_VALUE',
'Maximum model space distance between geometric entities at asserted c
onnectivities');
#455=(
GEOMETRIC_REPRESENTATION_CONTEXT(3)
GLOBAL_UNCERTAINTY_ASSIGNED_CONTEXT((#453))
GLOBAL_UNIT_ASSIGNED_CONTEXT((#457,#459,#460))
REPRESENTATION_CONTEXT('','3D')
);
#456=(
GEOMETRIC_REPRESENTATION_CONTEXT(3)
GLOBAL_UNCERTAINTY_ASSIGNED_CONTEXT((#454))
GLOBAL_UNIT_ASSIGNED_CONTEXT((#457,#459,#460))
REPRESENTATION_CONTEXT('','3D')
);
#457=(
LENGTH_UNIT()
NAMED_UNIT(*)
SI_UNIT(.MILLI.,.METRE.)
);
#458=(
LENGTH_UNIT()
NAMED_UNIT(*)
SI_UNIT(.CENTI.,.METRE.)
);
#459=(
NAMED_UNIT(*)
PLANE_ANGLE_UNIT()
SI_UNIT($,.RADIAN.)
);
#460=(
NAMED_UNIT(*)
SI_UNIT($,.STERADIAN.)
SOLID_ANGLE_UNIT()
);
#461=SHAPE_DEFINITION_REPRESENTATION(#462,#463);
#462=PRODUCT_DEFINITION_SHAPE('',$,#465);
#463=SHAPE_REPRESENTATION('',(#238),#455);
#464=PRODUCT_DEFINITION_CONTEXT('part definition',#469,'design');
#465=PRODUCT_DEFINITION('IA8003_Shrinkwrap_1','IA8003_Shrinkwrap_1',#466,
#464);
#466=PRODUCT_DEFINITION_FORMATION('',$,#471);
#467=PRODUCT_RELATED_PRODUCT_CATEGORY('IA8003_Shrinkwrap_1',
'IA8003_Shrinkwrap_1',(#471));
#468=APPLICATION_PROTOCOL_DEFINITION('international standard',
'automotive_design',2009,#469);
#469=APPLICATION_CONTEXT(
'Core Data for Automotive Mechanical Design Process');
#470=PRODUCT_CONTEXT('part definition',#469,'mechanical');
#471=PRODUCT('IA8003_Shrinkwrap_1','IA8003_Shrinkwrap_1',$,(#470));
#472=PRESENTATION_STYLE_ASSIGNMENT((#476));
#473=PRESENTATION_STYLE_ASSIGNMENT((#477));
#474=PRESENTATION_STYLE_ASSIGNMENT((#478));
#475=PRESENTATION_STYLE_ASSIGNMENT((#479));
#476=SURFACE_STYLE_USAGE(.BOTH.,#488);
#477=SURFACE_STYLE_USAGE(.BOTH.,#489);
#478=SURFACE_STYLE_USAGE(.BOTH.,#490);
#479=SURFACE_STYLE_USAGE(.BOTH.,#491);
#480=SURFACE_STYLE_RENDERING_WITH_PROPERTIES($,#504,(#484));
#481=SURFACE_STYLE_RENDERING_WITH_PROPERTIES($,#505,(#485));
#482=SURFACE_STYLE_RENDERING_WITH_PROPERTIES($,#506,(#486));
#483=SURFACE_STYLE_RENDERING_WITH_PROPERTIES($,#507,(#487));
#484=SURFACE_STYLE_TRANSPARENT(0.);
#485=SURFACE_STYLE_TRANSPARENT(0.);
#486=SURFACE_STYLE_TRANSPARENT(0.339999973773956);
#487=SURFACE_STYLE_TRANSPARENT(0.);
#488=SURFACE_SIDE_STYLE('',(#492,#480));
#489=SURFACE_SIDE_STYLE('',(#493,#481));
#490=SURFACE_SIDE_STYLE('',(#494,#482));
#491=SURFACE_SIDE_STYLE('',(#495,#483));
#492=SURFACE_STYLE_FILL_AREA(#496);
#493=SURFACE_STYLE_FILL_AREA(#497);
#494=SURFACE_STYLE_FILL_AREA(#498);
#495=SURFACE_STYLE_FILL_AREA(#499);
#496=FILL_AREA_STYLE('',(#500));
#497=FILL_AREA_STYLE('',(#501));
#498=FILL_AREA_STYLE('',(#502));
#499=FILL_AREA_STYLE('',(#503));
#500=FILL_AREA_STYLE_COLOUR('',#504);
#501=FILL_AREA_STYLE_COLOUR('',#505);
#502=FILL_AREA_STYLE_COLOUR('',#506);
#503=FILL_AREA_STYLE_COLOUR('',#507);
#504=COLOUR_RGB('',0.749019607843137,0.749019607843137,0.749019607843137);
#505=COLOUR_RGB('',0.0196078431372549,0.0196078431372549,0.0196078431372549);
#506=COLOUR_RGB('',0.925490196078431,0.945098039215686,0.937254901960784);
#507=COLOUR_RGB('',0.752941176470588,0.752941176470588,0.752941176470588);
ENDSEC;
END-ISO-10303-21;
