ISO-10303-21;
HEADER;
/* Generated by software containing ST-Developer
 * from STEP Tools, Inc. (www.steptools.com) 
 */

FILE_DESCRIPTION(
/* description */ (''),
/* implementation_level */ '2;1');

FILE_NAME(
/* name */ 
'E:\\Allgemein\\Inventor Pojekte\\Ger\X\E4te\\IA0365_Shrinkwrap_1.stp',

/* time_stamp */ '2022-03-18T10:31:03+01:00',
/* author */ ('Krieger Anja'),
/* organization */ (''),
/* preprocessor_version */ 'ST-DEVELOPER v18.1',
/* originating_system */ 'Autodesk Inventor 2021',
/* authorisation */ '');

FILE_SCHEMA (('AUTOMOTIVE_DESIGN { 1 0 10303 214 3 1 1 }'));
ENDSEC;

DATA;
#10=MECHANICAL_DESIGN_GEOMETRIC_PRESENTATION_REPRESENTATION('',(#100,#101,
#102,#103,#104,#105,#106,#107),#219);
#11=SHAPE_REPRESENTATION_RELATIONSHIP('SRR','None',#226,#12);
#12=ADVANCED_BREP_SHAPE_REPRESENTATION('',(#13),#218);
#13=MANIFOLD_SOLID_BREP('Volumenk\X\F6rper1',#115);
#14=PLANE('',#142);
#15=PLANE('',#149);
#16=CYLINDRICAL_SURFACE('',#140,4.);
#17=CYLINDRICAL_SURFACE('',#144,1.6);
#18=CYLINDRICAL_SURFACE('',#147,3.25);
#19=FACE_OUTER_BOUND('',#26,.T.);
#20=FACE_OUTER_BOUND('',#27,.T.);
#21=FACE_OUTER_BOUND('',#28,.T.);
#22=FACE_OUTER_BOUND('',#29,.T.);
#23=FACE_OUTER_BOUND('',#30,.T.);
#24=FACE_OUTER_BOUND('',#31,.T.);
#25=FACE_OUTER_BOUND('',#32,.T.);
#26=EDGE_LOOP('',(#72,#73,#74,#75,#76,#77));
#27=EDGE_LOOP('',(#78,#79,#80,#81,#82));
#28=EDGE_LOOP('',(#83));
#29=EDGE_LOOP('',(#84,#85,#86,#87));
#30=EDGE_LOOP('',(#88,#89,#90,#91));
#31=EDGE_LOOP('',(#92,#93,#94,#95,#96));
#32=EDGE_LOOP('',(#97));
#33=LINE('',#193,#38);
#34=LINE('',#200,#39);
#35=LINE('',#208,#40);
#36=LINE('',#210,#41);
#37=LINE('',#214,#42);
#38=VECTOR('',#156,3.625);
#39=VECTOR('',#165,4.);
#40=VECTOR('',#176,1.6);
#41=VECTOR('',#179,2.8);
#42=VECTOR('',#184,3.25);
#43=CIRCLE('',#136,3.25);
#44=CIRCLE('',#137,4.);
#45=CIRCLE('',#138,4.);
#46=CIRCLE('',#139,3.25);
#47=CIRCLE('',#141,4.);
#48=CIRCLE('',#143,1.6);
#49=CIRCLE('',#145,1.6);
#50=CIRCLE('',#148,3.25);
#51=VERTEX_POINT('',#189);
#52=VERTEX_POINT('',#190);
#53=VERTEX_POINT('',#192);
#54=VERTEX_POINT('',#194);
#55=VERTEX_POINT('',#199);
#56=VERTEX_POINT('',#203);
#57=VERTEX_POINT('',#206);
#58=VERTEX_POINT('',#212);
#59=EDGE_CURVE('',#51,#52,#43,.T.);
#60=EDGE_CURVE('',#51,#53,#33,.T.);
#61=EDGE_CURVE('',#53,#54,#44,.T.);
#62=EDGE_CURVE('',#54,#53,#45,.T.);
#63=EDGE_CURVE('',#52,#51,#46,.T.);
#64=EDGE_CURVE('',#54,#55,#34,.T.);
#65=EDGE_CURVE('',#55,#55,#47,.T.);
#66=EDGE_CURVE('',#56,#56,#48,.T.);
#67=EDGE_CURVE('',#57,#57,#49,.T.);
#68=EDGE_CURVE('',#57,#56,#35,.T.);
#69=EDGE_CURVE('',#55,#57,#36,.T.);
#70=EDGE_CURVE('',#58,#58,#50,.T.);
#71=EDGE_CURVE('',#58,#52,#37,.T.);
#72=ORIENTED_EDGE('',*,*,#59,.F.);
#73=ORIENTED_EDGE('',*,*,#60,.T.);
#74=ORIENTED_EDGE('',*,*,#61,.T.);
#75=ORIENTED_EDGE('',*,*,#62,.T.);
#76=ORIENTED_EDGE('',*,*,#60,.F.);
#77=ORIENTED_EDGE('',*,*,#63,.F.);
#78=ORIENTED_EDGE('',*,*,#61,.F.);
#79=ORIENTED_EDGE('',*,*,#62,.F.);
#80=ORIENTED_EDGE('',*,*,#64,.T.);
#81=ORIENTED_EDGE('',*,*,#65,.T.);
#82=ORIENTED_EDGE('',*,*,#64,.F.);
#83=ORIENTED_EDGE('',*,*,#66,.F.);
#84=ORIENTED_EDGE('',*,*,#67,.F.);
#85=ORIENTED_EDGE('',*,*,#68,.T.);
#86=ORIENTED_EDGE('',*,*,#66,.T.);
#87=ORIENTED_EDGE('',*,*,#68,.F.);
#88=ORIENTED_EDGE('',*,*,#65,.F.);
#89=ORIENTED_EDGE('',*,*,#69,.T.);
#90=ORIENTED_EDGE('',*,*,#67,.T.);
#91=ORIENTED_EDGE('',*,*,#69,.F.);
#92=ORIENTED_EDGE('',*,*,#70,.F.);
#93=ORIENTED_EDGE('',*,*,#71,.T.);
#94=ORIENTED_EDGE('',*,*,#63,.T.);
#95=ORIENTED_EDGE('',*,*,#59,.T.);
#96=ORIENTED_EDGE('',*,*,#71,.F.);
#97=ORIENTED_EDGE('',*,*,#70,.T.);
#98=CONICAL_SURFACE('',#135,3.625,0.785398163397445);
#99=CONICAL_SURFACE('',#146,2.8,1.36724007699969);
#100=STYLED_ITEM('',(#235),#108);
#101=STYLED_ITEM('',(#235),#109);
#102=STYLED_ITEM('',(#235),#110);
#103=STYLED_ITEM('',(#235),#111);
#104=STYLED_ITEM('',(#236),#112);
#105=STYLED_ITEM('',(#237),#113);
#106=STYLED_ITEM('',(#237),#114);
#107=STYLED_ITEM('',(#235),#13);
#108=ADVANCED_FACE('',(#19),#98,.T.);
#109=ADVANCED_FACE('',(#20),#16,.T.);
#110=ADVANCED_FACE('',(#21),#14,.T.);
#111=ADVANCED_FACE('',(#22),#17,.T.);
#112=ADVANCED_FACE('',(#23),#99,.T.);
#113=ADVANCED_FACE('',(#24),#18,.T.);
#114=ADVANCED_FACE('',(#25),#15,.T.);
#115=CLOSED_SHELL('',(#108,#109,#110,#111,#112,#113,#114));
#116=DERIVED_UNIT_ELEMENT(#118,1.);
#117=DERIVED_UNIT_ELEMENT(#221,3.);
#118=(
MASS_UNIT()
NAMED_UNIT(*)
SI_UNIT($,.GRAM.)
);
#119=DERIVED_UNIT((#116,#117));
#120=MEASURE_REPRESENTATION_ITEM('density measure',
POSITIVE_RATIO_MEASURE(1.),#119);
#121=PROPERTY_DEFINITION_REPRESENTATION(#126,#123);
#122=PROPERTY_DEFINITION_REPRESENTATION(#127,#124);
#123=REPRESENTATION('material name',(#125),#218);
#124=REPRESENTATION('density',(#120),#218);
#125=DESCRIPTIVE_REPRESENTATION_ITEM('Allgemein','Allgemein');
#126=PROPERTY_DEFINITION('material property','material name',#228);
#127=PROPERTY_DEFINITION('material property','density of part',#228);
#128=DATE_TIME_ROLE('creation_date');
#129=APPLIED_DATE_AND_TIME_ASSIGNMENT(#130,#128,(#228));
#130=DATE_AND_TIME(#131,#132);
#131=CALENDAR_DATE(2022,18,3);
#132=LOCAL_TIME(0,0,0.,#133);
#133=COORDINATED_UNIVERSAL_TIME_OFFSET(0,0,.BEHIND.);
#134=AXIS2_PLACEMENT_3D('placement',#187,#150,#151);
#135=AXIS2_PLACEMENT_3D('',#188,#152,#153);
#136=AXIS2_PLACEMENT_3D('',#191,#154,#155);
#137=AXIS2_PLACEMENT_3D('',#195,#157,#158);
#138=AXIS2_PLACEMENT_3D('',#196,#159,#160);
#139=AXIS2_PLACEMENT_3D('',#197,#161,#162);
#140=AXIS2_PLACEMENT_3D('',#198,#163,#164);
#141=AXIS2_PLACEMENT_3D('',#201,#166,#167);
#142=AXIS2_PLACEMENT_3D('',#202,#168,#169);
#143=AXIS2_PLACEMENT_3D('',#204,#170,#171);
#144=AXIS2_PLACEMENT_3D('',#205,#172,#173);
#145=AXIS2_PLACEMENT_3D('',#207,#174,#175);
#146=AXIS2_PLACEMENT_3D('',#209,#177,#178);
#147=AXIS2_PLACEMENT_3D('',#211,#180,#181);
#148=AXIS2_PLACEMENT_3D('',#213,#182,#183);
#149=AXIS2_PLACEMENT_3D('',#215,#185,#186);
#150=DIRECTION('axis',(0.,0.,1.));
#151=DIRECTION('refdir',(1.,0.,0.));
#152=DIRECTION('center_axis',(0.,1.,0.));
#153=DIRECTION('ref_axis',(-1.,0.,0.));
#154=DIRECTION('center_axis',(0.,-1.,0.));
#155=DIRECTION('ref_axis',(1.,0.,0.));
#156=DIRECTION('',(0.707106781186545,0.70710678118655,8.65956056235491E-17));
#157=DIRECTION('center_axis',(0.,-1.,0.));
#158=DIRECTION('ref_axis',(-1.,0.,0.));
#159=DIRECTION('center_axis',(0.,-1.,0.));
#160=DIRECTION('ref_axis',(-1.,0.,0.));
#161=DIRECTION('center_axis',(0.,-1.,0.));
#162=DIRECTION('ref_axis',(1.,0.,0.));
#163=DIRECTION('center_axis',(0.,-1.,0.));
#164=DIRECTION('ref_axis',(1.,0.,0.));
#165=DIRECTION('',(0.,1.,0.));
#166=DIRECTION('center_axis',(0.,-1.,0.));
#167=DIRECTION('ref_axis',(1.,0.,0.));
#168=DIRECTION('center_axis',(0.,1.,0.));
#169=DIRECTION('ref_axis',(0.,0.,1.));
#170=DIRECTION('center_axis',(0.,-1.,0.));
#171=DIRECTION('ref_axis',(1.,0.,0.));
#172=DIRECTION('center_axis',(0.,-1.,0.));
#173=DIRECTION('ref_axis',(1.,0.,0.));
#174=DIRECTION('center_axis',(0.,-1.,0.));
#175=DIRECTION('ref_axis',(1.,0.,0.));
#176=DIRECTION('',(0.,1.,0.));
#177=DIRECTION('center_axis',(0.,-1.,0.));
#178=DIRECTION('ref_axis',(1.,0.,0.));
#179=DIRECTION('',(0.97935386416185,0.202153428739786,1.1993625749784E-16));
#180=DIRECTION('center_axis',(0.,-1.,0.));
#181=DIRECTION('ref_axis',(1.,0.,0.));
#182=DIRECTION('center_axis',(0.,-1.,0.));
#183=DIRECTION('ref_axis',(1.,0.,0.));
#184=DIRECTION('',(0.,1.,0.));
#185=DIRECTION('center_axis',(0.,-1.,0.));
#186=DIRECTION('ref_axis',(0.,0.,-1.));
#187=CARTESIAN_POINT('',(0.,0.,0.));
#188=CARTESIAN_POINT('Origin',(-15.2333894809092,-19.8897306160908,-10.3964058858826));
#189=CARTESIAN_POINT('',(-11.9833894809092,-20.2647306160908,-10.3964058858826));
#190=CARTESIAN_POINT('',(-18.4833894809092,-20.2647306160908,-10.3964058858826));
#191=CARTESIAN_POINT('Origin',(-15.2333894809092,-20.2647306160908,-10.3964058858826));
#192=CARTESIAN_POINT('',(-11.2333894809092,-19.5147306160908,-10.3964058858826));
#193=CARTESIAN_POINT('',(-11.6083894809092,-19.8897306160908,-10.3964058858826));
#194=CARTESIAN_POINT('',(-19.2333894809092,-19.5147306160908,-10.3964058858826));
#195=CARTESIAN_POINT('Origin',(-15.2333894809092,-19.5147306160908,-10.3964058858826));
#196=CARTESIAN_POINT('Origin',(-15.2333894809092,-19.5147306160908,-10.3964058858826));
#197=CARTESIAN_POINT('Origin',(-15.2333894809092,-20.2647306160908,-10.3964058858826));
#198=CARTESIAN_POINT('Origin',(-15.2333894809092,-4.76473061609082,-10.3964058858826));
#199=CARTESIAN_POINT('',(-19.2333894809092,10.7352693839092,-10.3964058858826));
#200=CARTESIAN_POINT('',(-19.2333894809092,-4.76473061609082,-10.3964058858826));
#201=CARTESIAN_POINT('Origin',(-15.2333894809092,10.7352693839092,-10.3964058858826));
#202=CARTESIAN_POINT('Origin',(-13.6333894809092,24.2647306160908,-10.3964058858826));
#203=CARTESIAN_POINT('',(-16.8333894809092,24.2647306160908,-10.3964058858826));
#204=CARTESIAN_POINT('Origin',(-15.2333894809092,24.2647306160908,-10.3964058858826));
#205=CARTESIAN_POINT('Origin',(-15.2333894809092,17.7476981235943,-10.3964058858826));
#206=CARTESIAN_POINT('',(-16.8333894809092,11.2306656310978,-10.3964058858826));
#207=CARTESIAN_POINT('Origin',(-15.2333894809092,11.2306656310978,-10.3964058858826));
#208=CARTESIAN_POINT('',(-16.8333894809092,17.7476981235943,-10.3964058858826));
#209=CARTESIAN_POINT('Origin',(-15.2333894809092,10.9829675075035,-10.3964058858826));
#210=CARTESIAN_POINT('',(-18.0333894809092,10.9829675075035,-10.3964058858826));
#211=CARTESIAN_POINT('Origin',(-15.2333894809092,-22.2647306160908,-10.3964058858826));
#212=CARTESIAN_POINT('',(-18.4833894809092,-24.2647306160908,-10.3964058858826));
#213=CARTESIAN_POINT('Origin',(-15.2333894809092,-24.2647306160908,-10.3964058858826));
#214=CARTESIAN_POINT('',(-18.4833894809092,-22.2647306160908,-10.3964058858826));
#215=CARTESIAN_POINT('Origin',(-15.2333894809092,-24.2647306160908,-10.3964058858826));
#216=UNCERTAINTY_MEASURE_WITH_UNIT(LENGTH_MEASURE(0.01),#220,
'DISTANCE_ACCURACY_VALUE',
'Maximum model space distance between geometric entities at asserted c
onnectivities');
#217=UNCERTAINTY_MEASURE_WITH_UNIT(LENGTH_MEASURE(0.01),#220,
'DISTANCE_ACCURACY_VALUE',
'Maximum model space distance between geometric entities at asserted c
onnectivities');
#218=(
GEOMETRIC_REPRESENTATION_CONTEXT(3)
GLOBAL_UNCERTAINTY_ASSIGNED_CONTEXT((#216))
GLOBAL_UNIT_ASSIGNED_CONTEXT((#220,#222,#223))
REPRESENTATION_CONTEXT('','3D')
);
#219=(
GEOMETRIC_REPRESENTATION_CONTEXT(3)
GLOBAL_UNCERTAINTY_ASSIGNED_CONTEXT((#217))
GLOBAL_UNIT_ASSIGNED_CONTEXT((#220,#222,#223))
REPRESENTATION_CONTEXT('','3D')
);
#220=(
LENGTH_UNIT()
NAMED_UNIT(*)
SI_UNIT(.MILLI.,.METRE.)
);
#221=(
LENGTH_UNIT()
NAMED_UNIT(*)
SI_UNIT(.CENTI.,.METRE.)
);
#222=(
NAMED_UNIT(*)
PLANE_ANGLE_UNIT()
SI_UNIT($,.RADIAN.)
);
#223=(
NAMED_UNIT(*)
SI_UNIT($,.STERADIAN.)
SOLID_ANGLE_UNIT()
);
#224=SHAPE_DEFINITION_REPRESENTATION(#225,#226);
#225=PRODUCT_DEFINITION_SHAPE('',$,#228);
#226=SHAPE_REPRESENTATION('',(#134),#218);
#227=PRODUCT_DEFINITION_CONTEXT('part definition',#232,'design');
#228=PRODUCT_DEFINITION('IA0365_Shrinkwrap_1','IA0365_Shrinkwrap_1',#229,
#227);
#229=PRODUCT_DEFINITION_FORMATION('',$,#234);
#230=PRODUCT_RELATED_PRODUCT_CATEGORY('IA0365_Shrinkwrap_1',
'IA0365_Shrinkwrap_1',(#234));
#231=APPLICATION_PROTOCOL_DEFINITION('international standard',
'automotive_design',2009,#232);
#232=APPLICATION_CONTEXT(
'Core Data for Automotive Mechanical Design Process');
#233=PRODUCT_CONTEXT('part definition',#232,'mechanical');
#234=PRODUCT('IA0365_Shrinkwrap_1','IA0365_Shrinkwrap_1',$,(#233));
#235=PRESENTATION_STYLE_ASSIGNMENT((#238));
#236=PRESENTATION_STYLE_ASSIGNMENT((#239));
#237=PRESENTATION_STYLE_ASSIGNMENT((#240));
#238=SURFACE_STYLE_USAGE(.BOTH.,#247);
#239=SURFACE_STYLE_USAGE(.BOTH.,#248);
#240=SURFACE_STYLE_USAGE(.BOTH.,#249);
#241=SURFACE_STYLE_RENDERING_WITH_PROPERTIES($,#259,(#244));
#242=SURFACE_STYLE_RENDERING_WITH_PROPERTIES($,#260,(#245));
#243=SURFACE_STYLE_RENDERING_WITH_PROPERTIES($,#261,(#246));
#244=SURFACE_STYLE_TRANSPARENT(0.);
#245=SURFACE_STYLE_TRANSPARENT(0.339999973773956);
#246=SURFACE_STYLE_TRANSPARENT(0.);
#247=SURFACE_SIDE_STYLE('',(#250,#241));
#248=SURFACE_SIDE_STYLE('',(#251,#242));
#249=SURFACE_SIDE_STYLE('',(#252,#243));
#250=SURFACE_STYLE_FILL_AREA(#253);
#251=SURFACE_STYLE_FILL_AREA(#254);
#252=SURFACE_STYLE_FILL_AREA(#255);
#253=FILL_AREA_STYLE('',(#256));
#254=FILL_AREA_STYLE('',(#257));
#255=FILL_AREA_STYLE('',(#258));
#256=FILL_AREA_STYLE_COLOUR('',#259);
#257=FILL_AREA_STYLE_COLOUR('',#260);
#258=FILL_AREA_STYLE_COLOUR('',#261);
#259=COLOUR_RGB('',0.749019607843137,0.749019607843137,0.749019607843137);
#260=COLOUR_RGB('',0.925490196078431,0.945098039215686,0.937254901960784);
#261=COLOUR_RGB('',0.0941176470588235,0.145098039215686,0.972549019607843);
ENDSEC;
END-ISO-10303-21;
