ISO-10303-21;
HEADER;
/* Generated by software containing ST-Developer
 * from STEP Tools, Inc. (www.steptools.com) 
 */

FILE_DESCRIPTION(
/* description */ (''),
/* implementation_level */ '2;1');

FILE_NAME(
/* name */ 
'E:\\Allgemein\\Inventor Pojekte\\Ger\X\E4te\\IA0344_Shrinkwrap_1.stp',

/* time_stamp */ '2022-03-18T13:33:25+01:00',
/* author */ ('Krieger Anja'),
/* organization */ (''),
/* preprocessor_version */ 'ST-DEVELOPER v18.1',
/* originating_system */ 'Autodesk Inventor 2021',
/* authorisation */ '');

FILE_SCHEMA (('AUTOMOTIVE_DESIGN { 1 0 10303 214 3 1 1 }'));
ENDSEC;

DATA;
#10=MECHANICAL_DESIGN_GEOMETRIC_PRESENTATION_REPRESENTATION('',(#102,#103,
#104,#105,#106,#107,#108,#109),#272);
#11=SHAPE_REPRESENTATION_RELATIONSHIP('SRR','None',#279,#12);
#12=ADVANCED_BREP_SHAPE_REPRESENTATION('',(#13),#271);
#13=MANIFOLD_SOLID_BREP('Volumenk\X\F6rper1',#117);
#14=B_SPLINE_CURVE_WITH_KNOTS('',3,(#199,#200,#201,#202,#203,#204,#205,
#206,#207,#208,#209,#210,#211,#212,#213,#214),.UNSPECIFIED.,.F.,.F.,(4,
2,2,2,2,2,2,4),(0.391534172365443,0.433683480731259,0.475832789097076,0.56013140582871,
0.599984223474009,0.639837041119308,0.684024164303501,0.711313695225399),
 .UNSPECIFIED.);
#15=B_SPLINE_CURVE_WITH_KNOTS('',3,(#217,#218,#219,#220,#221,#222,#223,
#224,#225,#226,#227,#228,#229,#230,#231,#232),.UNSPECIFIED.,.F.,.F.,(4,
2,2,2,2,2,2,4),(0.0717546495054865,0.0990441804273839,0.143231303611577,
0.183084121256876,0.222936938902175,0.307235555633809,0.349384863999626,
0.391534172365443),.UNSPECIFIED.);
#16=B_SPLINE_CURVE_WITH_KNOTS('',3,(#235,#236,#237,#238,#239,#240,#241,
#242,#243,#244,#245,#246,#247,#248,#249,#250),.UNSPECIFIED.,.F.,.F.,(4,
2,2,2,2,2,2,4),(0.854822994236371,0.882112525158268,0.926299648342461,0.966152465987761,
1.00600528363306,1.09030390036469,1.13245320873051,1.17460251709633),
 .UNSPECIFIED.);
#17=B_SPLINE_CURVE_WITH_KNOTS('',3,(#251,#252,#253,#254,#255,#256,#257,
#258,#259,#260,#261,#262,#263,#264,#265,#266),.UNSPECIFIED.,.F.,.F.,(4,
2,2,2,2,2,2,4),(1.17460251709633,1.21675182546214,1.25890113382796,1.34319975055959,
1.38305256820489,1.42290538585019,1.46709250903439,1.49438203995628),
 .UNSPECIFIED.);
#18=CONICAL_SURFACE('',#144,3.,0.785398163397448);
#19=LINE('',#189,#23);
#20=LINE('',#194,#24);
#21=LINE('',#216,#25);
#22=LINE('',#268,#26);
#23=VECTOR('',#161,3.25);
#24=VECTOR('',#168,3.);
#25=VECTOR('',#173,10.);
#26=VECTOR('',#178,1.95);
#27=CYLINDRICAL_SURFACE('',#140,3.25);
#28=CYLINDRICAL_SURFACE('',#146,1.2);
#29=CYLINDRICAL_SURFACE('',#147,1.2);
#30=CYLINDRICAL_SURFACE('',#148,1.95);
#31=FACE_BOUND('',#40,.T.);
#32=FACE_OUTER_BOUND('',#39,.T.);
#33=FACE_OUTER_BOUND('',#41,.T.);
#34=FACE_OUTER_BOUND('',#42,.T.);
#35=FACE_OUTER_BOUND('',#43,.T.);
#36=FACE_OUTER_BOUND('',#44,.T.);
#37=FACE_OUTER_BOUND('',#45,.T.);
#38=FACE_OUTER_BOUND('',#46,.T.);
#39=EDGE_LOOP('',(#74));
#40=EDGE_LOOP('',(#75));
#41=EDGE_LOOP('',(#76,#77,#78,#79,#80));
#42=EDGE_LOOP('',(#81,#82,#83,#84,#85));
#43=EDGE_LOOP('',(#86));
#44=EDGE_LOOP('',(#87,#88,#89));
#45=EDGE_LOOP('',(#90,#91,#92));
#46=EDGE_LOOP('',(#93,#94,#95,#96,#97,#98,#99));
#47=CIRCLE('',#138,2.75);
#48=CIRCLE('',#139,1.95);
#49=CIRCLE('',#141,3.25);
#50=CIRCLE('',#142,3.25);
#51=CIRCLE('',#143,3.25);
#52=VERTEX_POINT('',#181);
#53=VERTEX_POINT('',#183);
#54=VERTEX_POINT('',#186);
#55=VERTEX_POINT('',#188);
#56=VERTEX_POINT('',#190);
#57=VERTEX_POINT('',#197);
#58=VERTEX_POINT('',#198);
#59=VERTEX_POINT('',#215);
#60=VERTEX_POINT('',#234);
#61=EDGE_CURVE('',#52,#52,#47,.T.);
#62=EDGE_CURVE('',#53,#53,#48,.T.);
#63=EDGE_CURVE('',#54,#54,#49,.T.);
#64=EDGE_CURVE('',#54,#55,#19,.T.);
#65=EDGE_CURVE('',#56,#55,#50,.T.);
#66=EDGE_CURVE('',#55,#56,#51,.T.);
#67=EDGE_CURVE('',#56,#52,#20,.T.);
#68=EDGE_CURVE('',#57,#58,#14,.T.);
#69=EDGE_CURVE('',#58,#59,#21,.T.);
#70=EDGE_CURVE('',#59,#57,#15,.T.);
#71=EDGE_CURVE('',#58,#60,#16,.T.);
#72=EDGE_CURVE('',#60,#59,#17,.T.);
#73=EDGE_CURVE('',#57,#53,#22,.T.);
#74=ORIENTED_EDGE('',*,*,#61,.F.);
#75=ORIENTED_EDGE('',*,*,#62,.T.);
#76=ORIENTED_EDGE('',*,*,#63,.F.);
#77=ORIENTED_EDGE('',*,*,#64,.T.);
#78=ORIENTED_EDGE('',*,*,#65,.F.);
#79=ORIENTED_EDGE('',*,*,#66,.F.);
#80=ORIENTED_EDGE('',*,*,#64,.F.);
#81=ORIENTED_EDGE('',*,*,#65,.T.);
#82=ORIENTED_EDGE('',*,*,#66,.T.);
#83=ORIENTED_EDGE('',*,*,#67,.T.);
#84=ORIENTED_EDGE('',*,*,#61,.T.);
#85=ORIENTED_EDGE('',*,*,#67,.F.);
#86=ORIENTED_EDGE('',*,*,#63,.T.);
#87=ORIENTED_EDGE('',*,*,#68,.T.);
#88=ORIENTED_EDGE('',*,*,#69,.T.);
#89=ORIENTED_EDGE('',*,*,#70,.T.);
#90=ORIENTED_EDGE('',*,*,#71,.T.);
#91=ORIENTED_EDGE('',*,*,#72,.T.);
#92=ORIENTED_EDGE('',*,*,#69,.F.);
#93=ORIENTED_EDGE('',*,*,#68,.F.);
#94=ORIENTED_EDGE('',*,*,#73,.T.);
#95=ORIENTED_EDGE('',*,*,#62,.F.);
#96=ORIENTED_EDGE('',*,*,#73,.F.);
#97=ORIENTED_EDGE('',*,*,#70,.F.);
#98=ORIENTED_EDGE('',*,*,#72,.F.);
#99=ORIENTED_EDGE('',*,*,#71,.F.);
#100=PLANE('',#137);
#101=PLANE('',#145);
#102=STYLED_ITEM('',(#289),#110);
#103=STYLED_ITEM('',(#290),#111);
#104=STYLED_ITEM('',(#289),#112);
#105=STYLED_ITEM('',(#290),#113);
#106=STYLED_ITEM('',(#291),#114);
#107=STYLED_ITEM('',(#291),#115);
#108=STYLED_ITEM('',(#291),#116);
#109=STYLED_ITEM('',(#288),#13);
#110=ADVANCED_FACE('',(#32,#31),#100,.T.);
#111=ADVANCED_FACE('',(#33),#27,.T.);
#112=ADVANCED_FACE('',(#34),#18,.T.);
#113=ADVANCED_FACE('',(#35),#101,.T.);
#114=ADVANCED_FACE('',(#36),#28,.F.);
#115=ADVANCED_FACE('',(#37),#29,.T.);
#116=ADVANCED_FACE('',(#38),#30,.T.);
#117=CLOSED_SHELL('',(#110,#111,#112,#113,#114,#115,#116));
#118=DERIVED_UNIT_ELEMENT(#120,1.);
#119=DERIVED_UNIT_ELEMENT(#274,3.);
#120=(
MASS_UNIT()
NAMED_UNIT(*)
SI_UNIT($,.GRAM.)
);
#121=DERIVED_UNIT((#118,#119));
#122=MEASURE_REPRESENTATION_ITEM('density measure',
POSITIVE_RATIO_MEASURE(1.),#121);
#123=PROPERTY_DEFINITION_REPRESENTATION(#128,#125);
#124=PROPERTY_DEFINITION_REPRESENTATION(#129,#126);
#125=REPRESENTATION('material name',(#127),#271);
#126=REPRESENTATION('density',(#122),#271);
#127=DESCRIPTIVE_REPRESENTATION_ITEM('Allgemein','Allgemein');
#128=PROPERTY_DEFINITION('material property','material name',#281);
#129=PROPERTY_DEFINITION('material property','density of part',#281);
#130=DATE_TIME_ROLE('creation_date');
#131=APPLIED_DATE_AND_TIME_ASSIGNMENT(#132,#130,(#281));
#132=DATE_AND_TIME(#133,#134);
#133=CALENDAR_DATE(2022,18,3);
#134=LOCAL_TIME(0,0,0.,#135);
#135=COORDINATED_UNIVERSAL_TIME_OFFSET(0,0,.BEHIND.);
#136=AXIS2_PLACEMENT_3D('placement',#179,#149,#150);
#137=AXIS2_PLACEMENT_3D('',#180,#151,#152);
#138=AXIS2_PLACEMENT_3D('',#182,#153,#154);
#139=AXIS2_PLACEMENT_3D('',#184,#155,#156);
#140=AXIS2_PLACEMENT_3D('',#185,#157,#158);
#141=AXIS2_PLACEMENT_3D('',#187,#159,#160);
#142=AXIS2_PLACEMENT_3D('',#191,#162,#163);
#143=AXIS2_PLACEMENT_3D('',#192,#164,#165);
#144=AXIS2_PLACEMENT_3D('',#193,#166,#167);
#145=AXIS2_PLACEMENT_3D('',#195,#169,#170);
#146=AXIS2_PLACEMENT_3D('',#196,#171,#172);
#147=AXIS2_PLACEMENT_3D('',#233,#174,#175);
#148=AXIS2_PLACEMENT_3D('',#267,#176,#177);
#149=DIRECTION('axis',(0.,0.,1.));
#150=DIRECTION('refdir',(1.,0.,0.));
#151=DIRECTION('center_axis',(-1.5419764230905E-16,1.,-1.32963943818345E-17));
#152=DIRECTION('ref_axis',(-2.22044604925032E-16,1.32963943818345E-17,1.));
#153=DIRECTION('center_axis',(1.5419764230905E-16,-1.,1.32963943818345E-17));
#154=DIRECTION('ref_axis',(-1.,-1.5419764230905E-16,-2.22044604925032E-16));
#155=DIRECTION('center_axis',(1.5419764230905E-16,-1.,1.32963943818345E-17));
#156=DIRECTION('ref_axis',(1.,1.70887618958552E-16,2.22044604925032E-16));
#157=DIRECTION('center_axis',(1.5419764230905E-16,-1.,1.32963943818345E-17));
#158=DIRECTION('ref_axis',(1.,1.70887618958552E-16,2.22044604925032E-16));
#159=DIRECTION('center_axis',(8.47223323186015E-17,-1.,1.01689101063646E-31));
#160=DIRECTION('ref_axis',(1.,8.47223323186015E-17,8.76207054130796E-48));
#161=DIRECTION('',(-1.5419764230905E-16,1.,-1.32963943818345E-17));
#162=DIRECTION('center_axis',(-1.5419764230905E-16,1.,-1.32963943818345E-17));
#163=DIRECTION('ref_axis',(-1.,-1.70887618958552E-16,-2.22044604925032E-16));
#164=DIRECTION('center_axis',(-1.5419764230905E-16,1.,-1.32963943818345E-17));
#165=DIRECTION('ref_axis',(-1.,-1.70887618958552E-16,-2.22044604925032E-16));
#166=DIRECTION('center_axis',(1.5419764230905E-16,-1.,1.32963943818345E-17));
#167=DIRECTION('ref_axis',(-1.,-1.6323804632753E-16,-2.22044604925032E-16));
#168=DIRECTION('',(-0.707106781186548,0.707106781186547,-2.53006822124653E-16));
#169=DIRECTION('center_axis',(8.47223323186015E-17,-1.,1.01689101063646E-31));
#170=DIRECTION('ref_axis',(1.7377408354802E-47,-1.01689101063646E-31,-1.));
#171=DIRECTION('center_axis',(3.51551760344666E-24,-3.4694469519535E-18,
1.));
#172=DIRECTION('ref_axis',(-0.812499999999998,-0.582961190818054,-2.02255007023282E-18));
#173=DIRECTION('',(3.51551760344666E-24,-3.4694469519535E-18,1.));
#174=DIRECTION('center_axis',(3.51551760344666E-24,-3.4694469519535E-18,
1.));
#175=DIRECTION('ref_axis',(-0.8125,-0.582961190818051,-2.02255007023281E-18));
#176=DIRECTION('center_axis',(-1.49186218934005E-16,1.,3.4694469519535E-18));
#177=DIRECTION('ref_axis',(-1.,-1.49186218934005E-16,3.51551760292907E-24));
#178=DIRECTION('',(1.49186218934005E-16,-1.,-3.4694469519535E-18));
#179=CARTESIAN_POINT('',(0.,0.,0.));
#180=CARTESIAN_POINT('Origin',(-4.33495567957639,7.48535586343124,11.5222076323774));
#181=CARTESIAN_POINT('',(-4.18495567957638,7.48535586343124,11.5222076323774));
#182=CARTESIAN_POINT('Origin',(-6.93495567957638,7.48535586343124,11.5222076323774));
#183=CARTESIAN_POINT('',(-4.98495567957638,7.48535586343124,11.5222076323774));
#184=CARTESIAN_POINT('Origin',(-6.93495567957638,7.48535586343124,11.5222076323774));
#185=CARTESIAN_POINT('Origin',(-6.93495567957638,7.08535586343124,11.5222076323774));
#186=CARTESIAN_POINT('',(-10.1849556795764,-8.31464413656876,11.5222076323774));
#187=CARTESIAN_POINT('Origin',(-6.93495567957638,-8.31464413656876,11.5222076323775));
#188=CARTESIAN_POINT('',(-10.1849556795764,6.98535586343124,11.5222076323774));
#189=CARTESIAN_POINT('',(-10.1849556795764,7.08535586343124,11.5222076323774));
#190=CARTESIAN_POINT('',(-3.68495567957638,6.98535586343124,11.5222076323774));
#191=CARTESIAN_POINT('Origin',(-6.93495567957638,6.98535586343124,11.5222076323774));
#192=CARTESIAN_POINT('Origin',(-6.93495567957638,6.98535586343124,11.5222076323774));
#193=CARTESIAN_POINT('Origin',(-6.93495567957638,7.23535586343124,11.5222076323774));
#194=CARTESIAN_POINT('',(-3.93495567957638,7.23535586343124,11.5222076323774));
#195=CARTESIAN_POINT('Origin',(-6.93495567957638,-8.31464413656876,11.5222076323775));
#196=CARTESIAN_POINT('Origin',(-5.95995567957639,22.6049092924129,9.57220763237745));
#197=CARTESIAN_POINT('',(-4.98495567957639,21.9053558634312,11.5222076323775));
#198=CARTESIAN_POINT('',(-6.93495567957639,21.9053558634312,9.57220763237745));
#199=CARTESIAN_POINT('Ctrl Pts',(-4.98495567957639,21.9053558634312,11.5222076323775));
#200=CARTESIAN_POINT('Ctrl Pts',(-4.98495567957639,21.9053558634312,11.3817099378247));
#201=CARTESIAN_POINT('Ctrl Pts',(-5.000115054664,21.8832239226657,11.2436897868812));
#202=CARTESIAN_POINT('Ctrl Pts',(-5.05793809444327,21.8121692531928,10.9762638046847));
#203=CARTESIAN_POINT('Ctrl Pts',(-5.10065658139918,21.7639350003105,10.8466873733104));
#204=CARTESIAN_POINT('Ctrl Pts',(-5.26787272751433,21.6131682161113,10.4747055341581));
#205=CARTESIAN_POINT('Ctrl Pts',(-5.43263465210345,21.5060852165533,10.2489371423945));
#206=CARTESIAN_POINT('Ctrl Pts',(-5.73521240990127,21.421838863352,9.97947241827356));
#207=CARTESIAN_POINT('Ctrl Pts',(-5.85176626575513,21.403389443177,9.89449312844479));
#208=CARTESIAN_POINT('Ctrl Pts',(-6.09957477976397,21.4066349473865,9.75447106883122));
#209=CARTESIAN_POINT('Ctrl Pts',(-6.23080903155853,21.4289591572278,9.69940747869329));
#210=CARTESIAN_POINT('Ctrl Pts',(-6.48470181955745,21.5165243583385,9.61974970005963));
#211=CARTESIAN_POINT('Ctrl Pts',(-6.63638641819283,21.6029008237675,9.59198428197275));
#212=CARTESIAN_POINT('Ctrl Pts',(-6.81571900360393,21.7588005881668,9.57464135626056));
#213=CARTESIAN_POINT('Ctrl Pts',(-6.87964438152036,21.828265946678,9.57220763237745));
#214=CARTESIAN_POINT('Ctrl Pts',(-6.93495567957639,21.9053558634312,9.57220763237745));
#215=CARTESIAN_POINT('',(-6.93495567957639,21.9053558634312,13.4722076323775));
#216=CARTESIAN_POINT('',(-6.93495567957639,21.9053558634312,9.57220763237745));
#217=CARTESIAN_POINT('Ctrl Pts',(-6.93495567957639,21.9053558634312,13.4722076323775));
#218=CARTESIAN_POINT('Ctrl Pts',(-6.87964438152037,21.828265946678,13.4722076323775));
#219=CARTESIAN_POINT('Ctrl Pts',(-6.81571900360393,21.7588005881668,13.4697739084943));
#220=CARTESIAN_POINT('Ctrl Pts',(-6.63638641819283,21.6029008237675,13.4524309827822));
#221=CARTESIAN_POINT('Ctrl Pts',(-6.48470181955745,21.5165243583385,13.4246655646953));
#222=CARTESIAN_POINT('Ctrl Pts',(-6.23080903155853,21.4289591572278,13.3450077860616));
#223=CARTESIAN_POINT('Ctrl Pts',(-6.09957477976397,21.4066349473865,13.2899441959237));
#224=CARTESIAN_POINT('Ctrl Pts',(-5.85176626575513,21.403389443177,13.1499221363101));
#225=CARTESIAN_POINT('Ctrl Pts',(-5.73521240990127,21.421838863352,13.0649428464813));
#226=CARTESIAN_POINT('Ctrl Pts',(-5.43263465210345,21.5060852165533,12.7954781223604));
#227=CARTESIAN_POINT('Ctrl Pts',(-5.26787272751433,21.6131682161113,12.5697097305968));
#228=CARTESIAN_POINT('Ctrl Pts',(-5.10065658139918,21.7639350003105,12.1977278914445));
#229=CARTESIAN_POINT('Ctrl Pts',(-5.05793809444327,21.8121692531928,12.0681514600702));
#230=CARTESIAN_POINT('Ctrl Pts',(-5.000115054664,21.8832239226657,11.8007254778737));
#231=CARTESIAN_POINT('Ctrl Pts',(-4.98495567957639,21.9053558634312,11.6627053269302));
#232=CARTESIAN_POINT('Ctrl Pts',(-4.98495567957639,21.9053558634312,11.5222076323775));
#233=CARTESIAN_POINT('Origin',(-7.90995567957639,21.2058024344496,9.57220763237745));
#234=CARTESIAN_POINT('',(-8.88495567957639,21.9053558634312,11.5222076323775));
#235=CARTESIAN_POINT('Ctrl Pts',(-6.93495567957639,21.9053558634312,9.57220763237745));
#236=CARTESIAN_POINT('Ctrl Pts',(-6.99026697763241,21.9824457801844,9.57220763237745));
#237=CARTESIAN_POINT('Ctrl Pts',(-7.05419235554885,22.0519111386957,9.57464135626056));
#238=CARTESIAN_POINT('Ctrl Pts',(-7.23352494095994,22.207810903095,9.59198428197275));
#239=CARTESIAN_POINT('Ctrl Pts',(-7.38520953959532,22.2941873685239,9.61974970005963));
#240=CARTESIAN_POINT('Ctrl Pts',(-7.63910232759424,22.3817525696346,9.69940747869329));
#241=CARTESIAN_POINT('Ctrl Pts',(-7.77033657938881,22.404076779476,9.75447106883122));
#242=CARTESIAN_POINT('Ctrl Pts',(-8.01814509339764,22.4073222836855,9.89449312844479));
#243=CARTESIAN_POINT('Ctrl Pts',(-8.1346989492515,22.3888728635105,9.97947241827356));
#244=CARTESIAN_POINT('Ctrl Pts',(-8.43727670704932,22.3046265103092,10.2489371423945));
#245=CARTESIAN_POINT('Ctrl Pts',(-8.60203863163844,22.1975435107511,10.4747055341581));
#246=CARTESIAN_POINT('Ctrl Pts',(-8.76925477775359,22.046776726552,10.8466873733104));
#247=CARTESIAN_POINT('Ctrl Pts',(-8.8119732647095,21.9985424736697,10.9762638046847));
#248=CARTESIAN_POINT('Ctrl Pts',(-8.86979630448878,21.9274878041968,11.2436897868812));
#249=CARTESIAN_POINT('Ctrl Pts',(-8.88495567957639,21.9053558634312,11.3817099378247));
#250=CARTESIAN_POINT('Ctrl Pts',(-8.88495567957639,21.9053558634312,11.5222076323775));
#251=CARTESIAN_POINT('Ctrl Pts',(-8.88495567957639,21.9053558634312,11.5222076323775));
#252=CARTESIAN_POINT('Ctrl Pts',(-8.88495567957639,21.9053558634312,11.6627053269302));
#253=CARTESIAN_POINT('Ctrl Pts',(-8.86979630448878,21.9274878041968,11.8007254778737));
#254=CARTESIAN_POINT('Ctrl Pts',(-8.8119732647095,21.9985424736697,12.0681514600702));
#255=CARTESIAN_POINT('Ctrl Pts',(-8.76925477775359,22.046776726552,12.1977278914445));
#256=CARTESIAN_POINT('Ctrl Pts',(-8.60203863163844,22.1975435107511,12.5697097305968));
#257=CARTESIAN_POINT('Ctrl Pts',(-8.43727670704932,22.3046265103092,12.7954781223604));
#258=CARTESIAN_POINT('Ctrl Pts',(-8.1346989492515,22.3888728635105,13.0649428464813));
#259=CARTESIAN_POINT('Ctrl Pts',(-8.01814509339764,22.4073222836855,13.1499221363101));
#260=CARTESIAN_POINT('Ctrl Pts',(-7.77033657938881,22.404076779476,13.2899441959237));
#261=CARTESIAN_POINT('Ctrl Pts',(-7.63910232759424,22.3817525696346,13.3450077860616));
#262=CARTESIAN_POINT('Ctrl Pts',(-7.38520953959532,22.2941873685239,13.4246655646953));
#263=CARTESIAN_POINT('Ctrl Pts',(-7.23352494095994,22.207810903095,13.4524309827822));
#264=CARTESIAN_POINT('Ctrl Pts',(-7.05419235554885,22.0519111386957,13.4697739084943));
#265=CARTESIAN_POINT('Ctrl Pts',(-6.99026697763241,21.9824457801844,13.4722076323775));
#266=CARTESIAN_POINT('Ctrl Pts',(-6.93495567957639,21.9053558634312,13.4722076323775));
#267=CARTESIAN_POINT('Origin',(-6.93495567957638,-8.09464413656876,11.5222076323775));
#268=CARTESIAN_POINT('',(-4.98495567957638,-8.09464413656876,11.5222076323775));
#269=UNCERTAINTY_MEASURE_WITH_UNIT(LENGTH_MEASURE(0.01),#273,
'DISTANCE_ACCURACY_VALUE',
'Maximum model space distance between geometric entities at asserted c
onnectivities');
#270=UNCERTAINTY_MEASURE_WITH_UNIT(LENGTH_MEASURE(0.01),#273,
'DISTANCE_ACCURACY_VALUE',
'Maximum model space distance between geometric entities at asserted c
onnectivities');
#271=(
GEOMETRIC_REPRESENTATION_CONTEXT(3)
GLOBAL_UNCERTAINTY_ASSIGNED_CONTEXT((#269))
GLOBAL_UNIT_ASSIGNED_CONTEXT((#273,#275,#276))
REPRESENTATION_CONTEXT('','3D')
);
#272=(
GEOMETRIC_REPRESENTATION_CONTEXT(3)
GLOBAL_UNCERTAINTY_ASSIGNED_CONTEXT((#270))
GLOBAL_UNIT_ASSIGNED_CONTEXT((#273,#275,#276))
REPRESENTATION_CONTEXT('','3D')
);
#273=(
LENGTH_UNIT()
NAMED_UNIT(*)
SI_UNIT(.MILLI.,.METRE.)
);
#274=(
LENGTH_UNIT()
NAMED_UNIT(*)
SI_UNIT(.CENTI.,.METRE.)
);
#275=(
NAMED_UNIT(*)
PLANE_ANGLE_UNIT()
SI_UNIT($,.RADIAN.)
);
#276=(
NAMED_UNIT(*)
SI_UNIT($,.STERADIAN.)
SOLID_ANGLE_UNIT()
);
#277=SHAPE_DEFINITION_REPRESENTATION(#278,#279);
#278=PRODUCT_DEFINITION_SHAPE('',$,#281);
#279=SHAPE_REPRESENTATION('',(#136),#271);
#280=PRODUCT_DEFINITION_CONTEXT('part definition',#285,'design');
#281=PRODUCT_DEFINITION('IA0344_Shrinkwrap_1','IA0344_Shrinkwrap_1',#282,
#280);
#282=PRODUCT_DEFINITION_FORMATION('',$,#287);
#283=PRODUCT_RELATED_PRODUCT_CATEGORY('IA0344_Shrinkwrap_1',
'IA0344_Shrinkwrap_1',(#287));
#284=APPLICATION_PROTOCOL_DEFINITION('international standard',
'automotive_design',2009,#285);
#285=APPLICATION_CONTEXT(
'Core Data for Automotive Mechanical Design Process');
#286=PRODUCT_CONTEXT('part definition',#285,'mechanical');
#287=PRODUCT('IA0344_Shrinkwrap_1','IA0344_Shrinkwrap_1',$,(#286));
#288=PRESENTATION_STYLE_ASSIGNMENT((#292));
#289=PRESENTATION_STYLE_ASSIGNMENT((#293));
#290=PRESENTATION_STYLE_ASSIGNMENT((#294));
#291=PRESENTATION_STYLE_ASSIGNMENT((#295));
#292=SURFACE_STYLE_USAGE(.BOTH.,#304);
#293=SURFACE_STYLE_USAGE(.BOTH.,#305);
#294=SURFACE_STYLE_USAGE(.BOTH.,#306);
#295=SURFACE_STYLE_USAGE(.BOTH.,#307);
#296=SURFACE_STYLE_RENDERING_WITH_PROPERTIES($,#320,(#300));
#297=SURFACE_STYLE_RENDERING_WITH_PROPERTIES($,#321,(#301));
#298=SURFACE_STYLE_RENDERING_WITH_PROPERTIES($,#322,(#302));
#299=SURFACE_STYLE_RENDERING_WITH_PROPERTIES($,#323,(#303));
#300=SURFACE_STYLE_TRANSPARENT(0.);
#301=SURFACE_STYLE_TRANSPARENT(0.40200001001358);
#302=SURFACE_STYLE_TRANSPARENT(0.);
#303=SURFACE_STYLE_TRANSPARENT(0.);
#304=SURFACE_SIDE_STYLE('',(#308,#296));
#305=SURFACE_SIDE_STYLE('',(#309,#297));
#306=SURFACE_SIDE_STYLE('',(#310,#298));
#307=SURFACE_SIDE_STYLE('',(#311,#299));
#308=SURFACE_STYLE_FILL_AREA(#312);
#309=SURFACE_STYLE_FILL_AREA(#313);
#310=SURFACE_STYLE_FILL_AREA(#314);
#311=SURFACE_STYLE_FILL_AREA(#315);
#312=FILL_AREA_STYLE('',(#316));
#313=FILL_AREA_STYLE('',(#317));
#314=FILL_AREA_STYLE('',(#318));
#315=FILL_AREA_STYLE('',(#319));
#316=FILL_AREA_STYLE_COLOUR('',#320);
#317=FILL_AREA_STYLE_COLOUR('',#321);
#318=FILL_AREA_STYLE_COLOUR('',#322);
#319=FILL_AREA_STYLE_COLOUR('',#323);
#320=COLOUR_RGB('',0.749019607843137,0.749019607843137,0.749019607843137);
#321=COLOUR_RGB('',0.501960784313725,0.501960784313725,0.501960784313725);
#322=COLOUR_RGB('',1.,0.968627450980392,0.725490196078431);
#323=COLOUR_RGB('',0.,0.,1.);
ENDSEC;
END-ISO-10303-21;
