ISO-10303-21;
HEADER;
/* Generated by software containing ST-Developer
 * from STEP Tools, Inc. (www.steptools.com) 
 */

FILE_DESCRIPTION(
/* description */ (''),
/* implementation_level */ '2;1');

FILE_NAME(
/* name */ 
'E:\\Allgemein\\Inventor Pojekte\\Ger\X\E4te\\IA0273_Shrinkwrap_1.stp',

/* time_stamp */ '2022-03-18T13:11:05+01:00',
/* author */ ('Krieger Anja'),
/* organization */ (''),
/* preprocessor_version */ 'ST-DEVELOPER v18.1',
/* originating_system */ 'Autodesk Inventor 2021',
/* authorisation */ '');

FILE_SCHEMA (('AUTOMOTIVE_DESIGN { 1 0 10303 214 3 1 1 }'));
ENDSEC;

DATA;
#10=MECHANICAL_DESIGN_GEOMETRIC_PRESENTATION_REPRESENTATION('',(#110,#111,
#112,#113,#114,#115,#116,#117,#118),#296);
#11=SHAPE_REPRESENTATION_RELATIONSHIP('SRR','None',#303,#12);
#12=ADVANCED_BREP_SHAPE_REPRESENTATION('',(#13),#295);
#13=MANIFOLD_SOLID_BREP('Volumenk\X\F6rper1',#127);
#14=B_SPLINE_CURVE_WITH_KNOTS('',3,(#215,#216,#217,#218,#219,#220,#221,
#222,#223,#224,#225,#226,#227,#228,#229,#230,#231,#232),.UNSPECIFIED.,.F.,
 .F.,(4,2,2,2,2,2,2,2,4),(0.752997346555596,0.758217920375357,0.801178816308358,
0.840017672227441,0.876539765452835,0.913061858678229,0.992973697670882,
1.03292961716721,1.07288553666354),.UNSPECIFIED.);
#15=B_SPLINE_CURVE_WITH_KNOTS('',3,(#234,#235,#236,#237,#238,#239,#240,
#241,#242,#243,#244,#245,#246,#247,#248,#249,#250,#251),.UNSPECIFIED.,.F.,
 .F.,(4,2,2,2,2,2,2,2,4),(0.357628512221179,0.397584431717505,0.437540351213832,
0.517452190206485,0.553974283431879,0.590496376657273,0.629335232576356,
0.672296128509357,0.677516702329117),.UNSPECIFIED.);
#16=B_SPLINE_CURVE_WITH_KNOTS('',3,(#253,#254,#255,#256,#257,#258,#259,
#260,#261,#262,#263,#264,#265,#266,#267,#268,#269,#270),.UNSPECIFIED.,.F.,
 .F.,(4,2,2,2,2,2,2,2,4),(0.0377403221132408,0.0429608959330008,0.0859217918660015,
0.124760647785085,0.161282741010479,0.197804834235873,0.277716673228526,
0.317672592724852,0.357628512221179),.UNSPECIFIED.);
#17=B_SPLINE_CURVE_WITH_KNOTS('',3,(#271,#272,#273,#274,#275,#276,#277,
#278,#279,#280,#281,#282,#283,#284,#285,#286,#287,#288),.UNSPECIFIED.,.F.,
 .F.,(4,2,2,2,2,2,2,2,4),(1.07288553666354,1.11284145615986,1.15279737565619,
1.23270921464884,1.26923130787424,1.30575340109963,1.34459225701871,1.38755315295171,
1.39277372677147),.UNSPECIFIED.);
#18=CYLINDRICAL_SURFACE('',#152,4.);
#19=CYLINDRICAL_SURFACE('',#157,1.85);
#20=CYLINDRICAL_SURFACE('',#158,1.);
#21=CYLINDRICAL_SURFACE('',#159,1.);
#22=LINE('',#202,#27);
#23=LINE('',#205,#28);
#24=LINE('',#210,#29);
#25=LINE('',#289,#30);
#26=LINE('',#291,#31);
#27=VECTOR('',#172,3.75);
#28=VECTOR('',#175,4.);
#29=VECTOR('',#182,3.75);
#30=VECTOR('',#187,1.85);
#31=VECTOR('',#190,10.);
#32=CONICAL_SURFACE('',#150,3.75,0.78539816339745);
#33=CONICAL_SURFACE('',#154,3.75,0.785398163397448);
#34=FACE_BOUND('',#44,.T.);
#35=FACE_OUTER_BOUND('',#43,.T.);
#36=FACE_OUTER_BOUND('',#45,.T.);
#37=FACE_OUTER_BOUND('',#46,.T.);
#38=FACE_OUTER_BOUND('',#47,.T.);
#39=FACE_OUTER_BOUND('',#48,.T.);
#40=FACE_OUTER_BOUND('',#49,.T.);
#41=FACE_OUTER_BOUND('',#50,.T.);
#42=FACE_OUTER_BOUND('',#51,.T.);
#43=EDGE_LOOP('',(#80));
#44=EDGE_LOOP('',(#81));
#45=EDGE_LOOP('',(#82,#83,#84,#85));
#46=EDGE_LOOP('',(#86,#87,#88,#89));
#47=EDGE_LOOP('',(#90,#91,#92,#93));
#48=EDGE_LOOP('',(#94));
#49=EDGE_LOOP('',(#95,#96,#97,#98,#99,#100,#101));
#50=EDGE_LOOP('',(#102,#103,#104));
#51=EDGE_LOOP('',(#105,#106,#107));
#52=CIRCLE('',#148,3.5);
#53=CIRCLE('',#149,1.85);
#54=CIRCLE('',#151,4.);
#55=CIRCLE('',#153,4.);
#56=CIRCLE('',#155,3.5);
#57=VERTEX_POINT('',#195);
#58=VERTEX_POINT('',#197);
#59=VERTEX_POINT('',#200);
#60=VERTEX_POINT('',#204);
#61=VERTEX_POINT('',#208);
#62=VERTEX_POINT('',#213);
#63=VERTEX_POINT('',#214);
#64=VERTEX_POINT('',#233);
#65=VERTEX_POINT('',#252);
#66=EDGE_CURVE('',#57,#57,#52,.T.);
#67=EDGE_CURVE('',#58,#58,#53,.T.);
#68=EDGE_CURVE('',#59,#59,#54,.T.);
#69=EDGE_CURVE('',#59,#57,#22,.T.);
#70=EDGE_CURVE('',#59,#60,#23,.T.);
#71=EDGE_CURVE('',#60,#60,#55,.T.);
#72=EDGE_CURVE('',#61,#61,#56,.T.);
#73=EDGE_CURVE('',#61,#60,#24,.T.);
#74=EDGE_CURVE('',#62,#63,#14,.T.);
#75=EDGE_CURVE('',#64,#62,#15,.T.);
#76=EDGE_CURVE('',#65,#64,#16,.T.);
#77=EDGE_CURVE('',#63,#65,#17,.T.);
#78=EDGE_CURVE('',#63,#58,#25,.T.);
#79=EDGE_CURVE('',#62,#65,#26,.T.);
#80=ORIENTED_EDGE('',*,*,#66,.F.);
#81=ORIENTED_EDGE('',*,*,#67,.F.);
#82=ORIENTED_EDGE('',*,*,#68,.T.);
#83=ORIENTED_EDGE('',*,*,#69,.T.);
#84=ORIENTED_EDGE('',*,*,#66,.T.);
#85=ORIENTED_EDGE('',*,*,#69,.F.);
#86=ORIENTED_EDGE('',*,*,#68,.F.);
#87=ORIENTED_EDGE('',*,*,#70,.T.);
#88=ORIENTED_EDGE('',*,*,#71,.F.);
#89=ORIENTED_EDGE('',*,*,#70,.F.);
#90=ORIENTED_EDGE('',*,*,#72,.T.);
#91=ORIENTED_EDGE('',*,*,#73,.T.);
#92=ORIENTED_EDGE('',*,*,#71,.T.);
#93=ORIENTED_EDGE('',*,*,#73,.F.);
#94=ORIENTED_EDGE('',*,*,#72,.F.);
#95=ORIENTED_EDGE('',*,*,#74,.F.);
#96=ORIENTED_EDGE('',*,*,#75,.F.);
#97=ORIENTED_EDGE('',*,*,#76,.F.);
#98=ORIENTED_EDGE('',*,*,#77,.F.);
#99=ORIENTED_EDGE('',*,*,#78,.T.);
#100=ORIENTED_EDGE('',*,*,#67,.T.);
#101=ORIENTED_EDGE('',*,*,#78,.F.);
#102=ORIENTED_EDGE('',*,*,#74,.T.);
#103=ORIENTED_EDGE('',*,*,#77,.T.);
#104=ORIENTED_EDGE('',*,*,#79,.F.);
#105=ORIENTED_EDGE('',*,*,#75,.T.);
#106=ORIENTED_EDGE('',*,*,#79,.T.);
#107=ORIENTED_EDGE('',*,*,#76,.T.);
#108=PLANE('',#147);
#109=PLANE('',#156);
#110=STYLED_ITEM('',(#313),#119);
#111=STYLED_ITEM('',(#314),#120);
#112=STYLED_ITEM('',(#314),#121);
#113=STYLED_ITEM('',(#314),#122);
#114=STYLED_ITEM('',(#315),#123);
#115=STYLED_ITEM('',(#316),#124);
#116=STYLED_ITEM('',(#316),#125);
#117=STYLED_ITEM('',(#316),#126);
#118=STYLED_ITEM('',(#312),#13);
#119=ADVANCED_FACE('',(#35,#34),#108,.F.);
#120=ADVANCED_FACE('',(#36),#32,.T.);
#121=ADVANCED_FACE('',(#37),#18,.T.);
#122=ADVANCED_FACE('',(#38),#33,.T.);
#123=ADVANCED_FACE('',(#39),#109,.T.);
#124=ADVANCED_FACE('',(#40),#19,.T.);
#125=ADVANCED_FACE('',(#41),#20,.T.);
#126=ADVANCED_FACE('',(#42),#21,.F.);
#127=CLOSED_SHELL('',(#119,#120,#121,#122,#123,#124,#125,#126));
#128=DERIVED_UNIT_ELEMENT(#130,1.);
#129=DERIVED_UNIT_ELEMENT(#298,3.);
#130=(
MASS_UNIT()
NAMED_UNIT(*)
SI_UNIT($,.GRAM.)
);
#131=DERIVED_UNIT((#128,#129));
#132=MEASURE_REPRESENTATION_ITEM('density measure',
POSITIVE_RATIO_MEASURE(1.),#131);
#133=PROPERTY_DEFINITION_REPRESENTATION(#138,#135);
#134=PROPERTY_DEFINITION_REPRESENTATION(#139,#136);
#135=REPRESENTATION('material name',(#137),#295);
#136=REPRESENTATION('density',(#132),#295);
#137=DESCRIPTIVE_REPRESENTATION_ITEM('Allgemein','Allgemein');
#138=PROPERTY_DEFINITION('material property','material name',#305);
#139=PROPERTY_DEFINITION('material property','density of part',#305);
#140=DATE_TIME_ROLE('creation_date');
#141=APPLIED_DATE_AND_TIME_ASSIGNMENT(#142,#140,(#305));
#142=DATE_AND_TIME(#143,#144);
#143=CALENDAR_DATE(2022,18,3);
#144=LOCAL_TIME(0,0,0.,#145);
#145=COORDINATED_UNIVERSAL_TIME_OFFSET(0,0,.BEHIND.);
#146=AXIS2_PLACEMENT_3D('placement',#193,#160,#161);
#147=AXIS2_PLACEMENT_3D('',#194,#162,#163);
#148=AXIS2_PLACEMENT_3D('',#196,#164,#165);
#149=AXIS2_PLACEMENT_3D('',#198,#166,#167);
#150=AXIS2_PLACEMENT_3D('',#199,#168,#169);
#151=AXIS2_PLACEMENT_3D('',#201,#170,#171);
#152=AXIS2_PLACEMENT_3D('',#203,#173,#174);
#153=AXIS2_PLACEMENT_3D('',#206,#176,#177);
#154=AXIS2_PLACEMENT_3D('',#207,#178,#179);
#155=AXIS2_PLACEMENT_3D('',#209,#180,#181);
#156=AXIS2_PLACEMENT_3D('',#211,#183,#184);
#157=AXIS2_PLACEMENT_3D('',#212,#185,#186);
#158=AXIS2_PLACEMENT_3D('',#290,#188,#189);
#159=AXIS2_PLACEMENT_3D('',#292,#191,#192);
#160=DIRECTION('axis',(0.,0.,1.));
#161=DIRECTION('refdir',(1.,0.,0.));
#162=DIRECTION('center_axis',(0.,0.,-1.));
#163=DIRECTION('ref_axis',(-1.,0.,0.));
#164=DIRECTION('center_axis',(0.,0.,-1.));
#165=DIRECTION('ref_axis',(-1.,0.,0.));
#166=DIRECTION('center_axis',(0.,0.,1.));
#167=DIRECTION('ref_axis',(1.,0.,0.));
#168=DIRECTION('center_axis',(0.,0.,-1.));
#169=DIRECTION('ref_axis',(-1.,0.,0.));
#170=DIRECTION('center_axis',(0.,0.,1.));
#171=DIRECTION('ref_axis',(-1.,0.,0.));
#172=DIRECTION('',(-0.707106781186549,8.65956056235495E-17,0.707106781186546));
#173=DIRECTION('center_axis',(0.,0.,1.));
#174=DIRECTION('ref_axis',(-1.,0.,0.));
#175=DIRECTION('',(0.,0.,-1.));
#176=DIRECTION('center_axis',(0.,0.,-1.));
#177=DIRECTION('ref_axis',(-1.,0.,0.));
#178=DIRECTION('center_axis',(0.,0.,1.));
#179=DIRECTION('ref_axis',(-1.,0.,0.));
#180=DIRECTION('center_axis',(0.,0.,1.));
#181=DIRECTION('ref_axis',(-1.,0.,0.));
#182=DIRECTION('',(0.707106781186547,-8.65956056235493E-17,0.707106781186548));
#183=DIRECTION('center_axis',(0.,0.,-1.));
#184=DIRECTION('ref_axis',(-1.,0.,0.));
#185=DIRECTION('center_axis',(0.,0.,1.));
#186=DIRECTION('ref_axis',(1.,0.,0.));
#187=DIRECTION('',(0.,0.,-1.));
#188=DIRECTION('center_axis',(0.,-1.,0.));
#189=DIRECTION('ref_axis',(0.925000000000001,0.,0.379967103839265));
#190=DIRECTION('',(0.,-1.,0.));
#191=DIRECTION('center_axis',(0.,-1.,0.));
#192=DIRECTION('ref_axis',(0.925000000000001,0.,0.379967103839265));
#193=CARTESIAN_POINT('',(0.,0.,0.));
#194=CARTESIAN_POINT('Origin',(0.,0.,22.));
#195=CARTESIAN_POINT('',(3.5,-4.28612223837832E-16,22.));
#196=CARTESIAN_POINT('Origin',(0.,0.,22.));
#197=CARTESIAN_POINT('',(-1.85,-2.2655965784226E-16,22.));
#198=CARTESIAN_POINT('Origin',(0.,0.,22.));
#199=CARTESIAN_POINT('Origin',(0.,0.,21.75));
#200=CARTESIAN_POINT('',(4.,4.89842541528951E-16,21.5));
#201=CARTESIAN_POINT('Origin',(0.,0.,21.5));
#202=CARTESIAN_POINT('',(3.75,-4.59242549680257E-16,21.75));
#203=CARTESIAN_POINT('Origin',(0.,0.,0.));
#204=CARTESIAN_POINT('',(4.,-4.89842541528951E-16,0.5));
#205=CARTESIAN_POINT('',(4.,4.89858719658941E-16,0.));
#206=CARTESIAN_POINT('Origin',(0.,0.,0.5));
#207=CARTESIAN_POINT('Origin',(0.,0.,0.25));
#208=CARTESIAN_POINT('',(3.5,4.28612223837832E-16,0.));
#209=CARTESIAN_POINT('Origin',(0.,0.,0.));
#210=CARTESIAN_POINT('',(3.75,-4.59242549680257E-16,0.25));
#211=CARTESIAN_POINT('Origin',(0.,0.,0.));
#212=CARTESIAN_POINT('Origin',(0.,0.,7.));
#213=CARTESIAN_POINT('',(0.,1.85,37.));
#214=CARTESIAN_POINT('',(-1.85,0.,37.));
#215=CARTESIAN_POINT('Ctrl Pts',(-2.37483643861225E-16,1.85,37.));
#216=CARTESIAN_POINT('Ctrl Pts',(-0.00693759225087591,1.85,37.0168890221475));
#217=CARTESIAN_POINT('Ctrl Pts',(-0.0143408660277139,1.8499610859912,37.0335947548992));
#218=CARTESIAN_POINT('Ctrl Pts',(-0.0868188514951368,1.8490915238253,37.1857487896836));
#219=CARTESIAN_POINT('Ctrl Pts',(-0.183519557821308,1.84425613310328,37.305889839851));
#220=CARTESIAN_POINT('Ctrl Pts',(-0.393363039999909,1.81051077846816,37.4766927205695));
#221=CARTESIAN_POINT('Ctrl Pts',(-0.528354286163558,1.77734086062265,37.5460643839124));
#222=CARTESIAN_POINT('Ctrl Pts',(-0.755468799532607,1.69279657011722,37.6122028014222));
#223=CARTESIAN_POINT('Ctrl Pts',(-0.873717210175856,1.63587367110342,37.6248102341218));
#224=CARTESIAN_POINT('Ctrl Pts',(-1.09430656072999,1.4973167854679,37.6117701185025));
#225=CARTESIAN_POINT('Ctrl Pts',(-1.19669102033689,1.41570074180341,37.5866739784824));
#226=CARTESIAN_POINT('Ctrl Pts',(-1.46660869128956,1.15651259909802,37.4837286448385));
#227=CARTESIAN_POINT('Ctrl Pts',(-1.60898631556431,0.945061963311086,37.3650452592762));
#228=CARTESIAN_POINT('Ctrl Pts',(-1.75139289232252,0.608242592200347,37.1882041631824));
#229=CARTESIAN_POINT('Ctrl Pts',(-1.78713461402206,0.493315205916986,37.1294867704412));
#230=CARTESIAN_POINT('Ctrl Pts',(-1.83624277497306,0.255775107037113,37.0353128410933));
#231=CARTESIAN_POINT('Ctrl Pts',(-1.85,0.133186398321088,37.));
#232=CARTESIAN_POINT('Ctrl Pts',(-1.85,-2.77555756156289E-16,37.));
#233=CARTESIAN_POINT('',(1.85,-7.21644966006352E-15,37.));
#234=CARTESIAN_POINT('Ctrl Pts',(1.85,1.73472347597681E-17,37.));
#235=CARTESIAN_POINT('Ctrl Pts',(1.85,0.133186398321089,37.));
#236=CARTESIAN_POINT('Ctrl Pts',(1.83624277497306,0.255775107037113,36.9646871589067));
#237=CARTESIAN_POINT('Ctrl Pts',(1.78713461402206,0.493315205916987,36.8705132295588));
#238=CARTESIAN_POINT('Ctrl Pts',(1.75139289232252,0.608242592200347,36.8117958368176));
#239=CARTESIAN_POINT('Ctrl Pts',(1.60898631556431,0.945061963311087,36.6349547407238));
#240=CARTESIAN_POINT('Ctrl Pts',(1.46660869128956,1.15651259909802,36.5162713551615));
#241=CARTESIAN_POINT('Ctrl Pts',(1.19669102033689,1.41570074180341,36.4133260215176));
#242=CARTESIAN_POINT('Ctrl Pts',(1.09430656072999,1.4973167854679,36.3882298814975));
#243=CARTESIAN_POINT('Ctrl Pts',(0.873717210175856,1.63587367110342,36.3751897658782));
#244=CARTESIAN_POINT('Ctrl Pts',(0.755468799532607,1.69279657011722,36.3877971985778));
#245=CARTESIAN_POINT('Ctrl Pts',(0.528354286163558,1.77734086062265,36.4539356160876));
#246=CARTESIAN_POINT('Ctrl Pts',(0.393363039999907,1.81051077846816,36.5233072794305));
#247=CARTESIAN_POINT('Ctrl Pts',(0.183519557821306,1.84425613310328,36.694110160149));
#248=CARTESIAN_POINT('Ctrl Pts',(0.0868188514951315,1.8490915238253,36.8142512103164));
#249=CARTESIAN_POINT('Ctrl Pts',(0.0143408660277117,1.8499610859912,36.9664052451008));
#250=CARTESIAN_POINT('Ctrl Pts',(0.00693759225087387,1.85,36.9831109778525));
#251=CARTESIAN_POINT('Ctrl Pts',(0.,1.85,37.));
#252=CARTESIAN_POINT('',(0.,-1.85,37.));
#253=CARTESIAN_POINT('Ctrl Pts',(0.,-1.85,37.));
#254=CARTESIAN_POINT('Ctrl Pts',(0.00693759225087563,-1.85,36.9831109778525));
#255=CARTESIAN_POINT('Ctrl Pts',(0.0143408660277114,-1.8499610859912,36.9664052451008));
#256=CARTESIAN_POINT('Ctrl Pts',(0.0868188514951315,-1.8490915238253,36.8142512103164));
#257=CARTESIAN_POINT('Ctrl Pts',(0.183519557821306,-1.84425613310328,36.694110160149));
#258=CARTESIAN_POINT('Ctrl Pts',(0.393363039999907,-1.81051077846816,36.5233072794305));
#259=CARTESIAN_POINT('Ctrl Pts',(0.528354286163558,-1.77734086062265,36.4539356160876));
#260=CARTESIAN_POINT('Ctrl Pts',(0.755468799532607,-1.69279657011722,36.3877971985778));
#261=CARTESIAN_POINT('Ctrl Pts',(0.873717210175856,-1.63587367110342,36.3751897658782));
#262=CARTESIAN_POINT('Ctrl Pts',(1.09430656072999,-1.4973167854679,36.3882298814975));
#263=CARTESIAN_POINT('Ctrl Pts',(1.19669102033689,-1.41570074180341,36.4133260215176));
#264=CARTESIAN_POINT('Ctrl Pts',(1.46660869128956,-1.15651259909802,36.5162713551615));
#265=CARTESIAN_POINT('Ctrl Pts',(1.60898631556431,-0.945061963311087,36.6349547407238));
#266=CARTESIAN_POINT('Ctrl Pts',(1.75139289232252,-0.608242592200347,36.8117958368176));
#267=CARTESIAN_POINT('Ctrl Pts',(1.78713461402206,-0.493315205916987,36.8705132295588));
#268=CARTESIAN_POINT('Ctrl Pts',(1.83624277497306,-0.255775107037113,36.9646871589067));
#269=CARTESIAN_POINT('Ctrl Pts',(1.85,-0.133186398321088,37.));
#270=CARTESIAN_POINT('Ctrl Pts',(1.85,3.64291929955129E-16,37.));
#271=CARTESIAN_POINT('Ctrl Pts',(-1.85,-1.73472347597681E-17,37.));
#272=CARTESIAN_POINT('Ctrl Pts',(-1.85,-0.133186398321088,37.));
#273=CARTESIAN_POINT('Ctrl Pts',(-1.83624277497306,-0.255775107037112,37.0353128410933));
#274=CARTESIAN_POINT('Ctrl Pts',(-1.78713461402206,-0.493315205916986,37.1294867704412));
#275=CARTESIAN_POINT('Ctrl Pts',(-1.75139289232252,-0.608242592200345,37.1882041631824));
#276=CARTESIAN_POINT('Ctrl Pts',(-1.60898631556431,-0.945061963311087,37.3650452592762));
#277=CARTESIAN_POINT('Ctrl Pts',(-1.46660869128956,-1.15651259909802,37.4837286448385));
#278=CARTESIAN_POINT('Ctrl Pts',(-1.19669102033689,-1.41570074180341,37.5866739784824));
#279=CARTESIAN_POINT('Ctrl Pts',(-1.09430656072999,-1.4973167854679,37.6117701185025));
#280=CARTESIAN_POINT('Ctrl Pts',(-0.873717210175856,-1.63587367110342,37.6248102341218));
#281=CARTESIAN_POINT('Ctrl Pts',(-0.755468799532607,-1.69279657011722,37.6122028014222));
#282=CARTESIAN_POINT('Ctrl Pts',(-0.528354286163558,-1.77734086062265,37.5460643839124));
#283=CARTESIAN_POINT('Ctrl Pts',(-0.393363039999908,-1.81051077846816,37.4766927205695));
#284=CARTESIAN_POINT('Ctrl Pts',(-0.183519557821307,-1.84425613310328,37.305889839851));
#285=CARTESIAN_POINT('Ctrl Pts',(-0.0868188514951368,-1.8490915238253,37.1857487896836));
#286=CARTESIAN_POINT('Ctrl Pts',(-0.0143408660277139,-1.8499610859912,37.0335947548992));
#287=CARTESIAN_POINT('Ctrl Pts',(-0.00693759225087767,-1.85,37.0168890221475));
#288=CARTESIAN_POINT('Ctrl Pts',(-2.37483643861227E-16,-1.85,37.));
#289=CARTESIAN_POINT('',(-1.85,-2.2655965784226E-16,7.));
#290=CARTESIAN_POINT('Origin',(-0.925000000000001,0.,36.6200328961607));
#291=CARTESIAN_POINT('',(0.,0.,37.));
#292=CARTESIAN_POINT('Origin',(0.925000000000001,0.,37.3799671038393));
#293=UNCERTAINTY_MEASURE_WITH_UNIT(LENGTH_MEASURE(0.01),#297,
'DISTANCE_ACCURACY_VALUE',
'Maximum model space distance between geometric entities at asserted c
onnectivities');
#294=UNCERTAINTY_MEASURE_WITH_UNIT(LENGTH_MEASURE(0.01),#297,
'DISTANCE_ACCURACY_VALUE',
'Maximum model space distance between geometric entities at asserted c
onnectivities');
#295=(
GEOMETRIC_REPRESENTATION_CONTEXT(3)
GLOBAL_UNCERTAINTY_ASSIGNED_CONTEXT((#293))
GLOBAL_UNIT_ASSIGNED_CONTEXT((#297,#299,#300))
REPRESENTATION_CONTEXT('','3D')
);
#296=(
GEOMETRIC_REPRESENTATION_CONTEXT(3)
GLOBAL_UNCERTAINTY_ASSIGNED_CONTEXT((#294))
GLOBAL_UNIT_ASSIGNED_CONTEXT((#297,#299,#300))
REPRESENTATION_CONTEXT('','3D')
);
#297=(
LENGTH_UNIT()
NAMED_UNIT(*)
SI_UNIT(.MILLI.,.METRE.)
);
#298=(
LENGTH_UNIT()
NAMED_UNIT(*)
SI_UNIT(.CENTI.,.METRE.)
);
#299=(
NAMED_UNIT(*)
PLANE_ANGLE_UNIT()
SI_UNIT($,.RADIAN.)
);
#300=(
NAMED_UNIT(*)
SI_UNIT($,.STERADIAN.)
SOLID_ANGLE_UNIT()
);
#301=SHAPE_DEFINITION_REPRESENTATION(#302,#303);
#302=PRODUCT_DEFINITION_SHAPE('',$,#305);
#303=SHAPE_REPRESENTATION('',(#146),#295);
#304=PRODUCT_DEFINITION_CONTEXT('part definition',#309,'design');
#305=PRODUCT_DEFINITION('IA0273_Shrinkwrap_1','IA0273_Shrinkwrap_1',#306,
#304);
#306=PRODUCT_DEFINITION_FORMATION('',$,#311);
#307=PRODUCT_RELATED_PRODUCT_CATEGORY('IA0273_Shrinkwrap_1',
'IA0273_Shrinkwrap_1',(#311));
#308=APPLICATION_PROTOCOL_DEFINITION('international standard',
'automotive_design',2009,#309);
#309=APPLICATION_CONTEXT(
'Core Data for Automotive Mechanical Design Process');
#310=PRODUCT_CONTEXT('part definition',#309,'mechanical');
#311=PRODUCT('IA0273_Shrinkwrap_1','IA0273_Shrinkwrap_1',$,(#310));
#312=PRESENTATION_STYLE_ASSIGNMENT((#317));
#313=PRESENTATION_STYLE_ASSIGNMENT((#318));
#314=PRESENTATION_STYLE_ASSIGNMENT((#319));
#315=PRESENTATION_STYLE_ASSIGNMENT((#320));
#316=PRESENTATION_STYLE_ASSIGNMENT((#321));
#317=SURFACE_STYLE_USAGE(.BOTH.,#330);
#318=SURFACE_STYLE_USAGE(.BOTH.,#331);
#319=SURFACE_STYLE_USAGE(.BOTH.,#332);
#320=SURFACE_STYLE_USAGE(.BOTH.,#333);
#321=SURFACE_STYLE_USAGE(.BOTH.,#334);
#322=SURFACE_STYLE_RENDERING_WITH_PROPERTIES($,#350,(#326));
#323=SURFACE_STYLE_RENDERING_WITH_PROPERTIES($,#352,(#327));
#324=SURFACE_STYLE_RENDERING_WITH_PROPERTIES($,#353,(#328));
#325=SURFACE_STYLE_RENDERING_WITH_PROPERTIES($,#354,(#329));
#326=SURFACE_STYLE_TRANSPARENT(0.);
#327=SURFACE_STYLE_TRANSPARENT(0.);
#328=SURFACE_STYLE_TRANSPARENT(0.);
#329=SURFACE_STYLE_TRANSPARENT(0.);
#330=SURFACE_SIDE_STYLE('',(#335,#322));
#331=SURFACE_SIDE_STYLE('',(#336));
#332=SURFACE_SIDE_STYLE('',(#337,#323));
#333=SURFACE_SIDE_STYLE('',(#338,#324));
#334=SURFACE_SIDE_STYLE('',(#339,#325));
#335=SURFACE_STYLE_FILL_AREA(#340);
#336=SURFACE_STYLE_FILL_AREA(#341);
#337=SURFACE_STYLE_FILL_AREA(#342);
#338=SURFACE_STYLE_FILL_AREA(#343);
#339=SURFACE_STYLE_FILL_AREA(#344);
#340=FILL_AREA_STYLE('',(#345));
#341=FILL_AREA_STYLE('',(#346));
#342=FILL_AREA_STYLE('',(#347));
#343=FILL_AREA_STYLE('',(#348));
#344=FILL_AREA_STYLE('',(#349));
#345=FILL_AREA_STYLE_COLOUR('',#350);
#346=FILL_AREA_STYLE_COLOUR('',#351);
#347=FILL_AREA_STYLE_COLOUR('',#352);
#348=FILL_AREA_STYLE_COLOUR('',#353);
#349=FILL_AREA_STYLE_COLOUR('',#354);
#350=COLOUR_RGB('',0.749019607843137,0.749019607843137,0.749019607843137);
#351=COLOUR_RGB('',0.76078431372549,0.76078431372549,0.76078431372549);
#352=COLOUR_RGB('',0.87843137254902,0.874509803921569,0.858823529411765);
#353=COLOUR_RGB('',0.333333333333333,0.337254901960784,0.294117647058824);
#354=COLOUR_RGB('',0.752941176470588,0.752941176470588,0.752941176470588);
ENDSEC;
END-ISO-10303-21;
