ISO-10303-21;
HEADER;
/* Generated by software containing ST-Developer
 * from STEP Tools, Inc. (www.steptools.com) 
 */

FILE_DESCRIPTION(
/* description */ (''),
/* implementation_level */ '2;1');

FILE_NAME(
/* name */ 
'E:\\Allgemein\\Inventor Pojekte\\Ger\X\E4te\\IA0260_Shrinkwrap_1.stp',

/* time_stamp */ '2022-03-18T10:40:38+01:00',
/* author */ ('Krieger Anja'),
/* organization */ (''),
/* preprocessor_version */ 'ST-DEVELOPER v18.1',
/* originating_system */ 'Autodesk Inventor 2021',
/* authorisation */ '');

FILE_SCHEMA (('AUTOMOTIVE_DESIGN { 1 0 10303 214 3 1 1 }'));
ENDSEC;

DATA;
#10=MECHANICAL_DESIGN_GEOMETRIC_PRESENTATION_REPRESENTATION('',(#202,#203,
#204,#205,#206,#207,#208,#209,#210,#211,#212,#213,#214,#215,#216),#474);
#11=SHAPE_REPRESENTATION_RELATIONSHIP('SRR','None',#481,#12);
#12=ADVANCED_BREP_SHAPE_REPRESENTATION('',(#13),#473);
#13=MANIFOLD_SOLID_BREP('Volumenk\X\F6rper1',#231);
#14=CONICAL_SURFACE('',#265,8.625,0.785398163397442);
#15=CONICAL_SURFACE('',#271,8.62499999999999,0.785398163397455);
#16=CONICAL_SURFACE('',#279,3.15,0.785398163397454);
#17=B_SPLINE_CURVE_WITH_KNOTS('',3,(#363,#364,#365,#366,#367,#368,#369,
#370,#371,#372,#373,#374,#375,#376,#377,#378),.UNSPECIFIED.,.F.,.F.,(4,
2,2,2,2,2,2,4),(1.49197954410026,1.54581347205277,1.59964740000528,1.7073152559103,
1.75803500403498,1.80875475215967,1.86453347812614,1.90484061710069),
 .UNSPECIFIED.);
#18=B_SPLINE_CURVE_WITH_KNOTS('',3,(#380,#381,#382,#383,#384,#385,#386,
#387,#388,#389,#390,#391,#392,#393,#394,#395),.UNSPECIFIED.,.F.,.F.,(4,
2,2,2,2,2,2,4),(1.07911847109982,1.11942561007437,1.17520433604084,1.22592408416553,
1.27664383229021,1.38431168819523,1.43814561614774,1.49197954410026),
 .UNSPECIFIED.);
#19=B_SPLINE_CURVE_WITH_KNOTS('',3,(#397,#398,#399,#400,#401,#402,#403,
#404,#405,#406,#407,#408,#409,#410,#411,#412),.UNSPECIFIED.,.F.,.F.,(4,
2,2,2,2,2,2,4),(0.497326514700087,0.551160442652598,0.60499437060511,0.712662226510132,
0.763381974634818,0.814101722759503,0.869880448725977,0.910187587700526),
 .UNSPECIFIED.);
#20=B_SPLINE_CURVE_WITH_KNOTS('',3,(#416,#417,#418,#419,#420,#421,#422,
#423,#424,#425,#426,#427,#428,#429,#430,#431),.UNSPECIFIED.,.F.,.F.,(4,
2,2,2,2,2,2,4),(0.0844654416996482,0.124772580674198,0.180551306640671,
0.231271054765357,0.281990802890043,0.389658658795065,0.443492586747576,
0.497326514700087),.UNSPECIFIED.);
#21=LINE('',#358,#30);
#22=LINE('',#414,#31);
#23=LINE('',#433,#32);
#24=LINE('',#441,#33);
#25=LINE('',#445,#34);
#26=LINE('',#451,#35);
#27=LINE('',#456,#36);
#28=LINE('',#462,#37);
#29=LINE('',#470,#38);
#30=VECTOR('',#292,8.4);
#31=VECTOR('',#297,2.5);
#32=VECTOR('',#302,10.);
#33=VECTOR('',#311,8.24999999999998);
#34=VECTOR('',#316,8.62499999999999);
#35=VECTOR('',#323,8.99999999999999);
#36=VECTOR('',#330,8.625);
#37=VECTOR('',#337,3.4);
#38=VECTOR('',#348,3.15);
#39=CYLINDRICAL_SURFACE('',#254,8.4);
#40=CYLINDRICAL_SURFACE('',#257,2.5);
#41=CYLINDRICAL_SURFACE('',#259,1.5);
#42=CYLINDRICAL_SURFACE('',#260,1.5);
#43=CYLINDRICAL_SURFACE('',#261,8.24999999999998);
#44=CYLINDRICAL_SURFACE('',#268,8.99999999999999);
#45=CYLINDRICAL_SURFACE('',#274,3.4);
#46=FACE_BOUND('',#64,.T.);
#47=FACE_BOUND('',#75,.T.);
#48=FACE_BOUND('',#78,.T.);
#49=FACE_OUTER_BOUND('',#63,.T.);
#50=FACE_OUTER_BOUND('',#65,.T.);
#51=FACE_OUTER_BOUND('',#66,.T.);
#52=FACE_OUTER_BOUND('',#67,.T.);
#53=FACE_OUTER_BOUND('',#68,.T.);
#54=FACE_OUTER_BOUND('',#69,.T.);
#55=FACE_OUTER_BOUND('',#70,.T.);
#56=FACE_OUTER_BOUND('',#71,.T.);
#57=FACE_OUTER_BOUND('',#72,.T.);
#58=FACE_OUTER_BOUND('',#73,.T.);
#59=FACE_OUTER_BOUND('',#74,.T.);
#60=FACE_OUTER_BOUND('',#76,.T.);
#61=FACE_OUTER_BOUND('',#77,.T.);
#62=FACE_OUTER_BOUND('',#79,.T.);
#63=EDGE_LOOP('',(#142));
#64=EDGE_LOOP('',(#143));
#65=EDGE_LOOP('',(#144,#145,#146,#147));
#66=EDGE_LOOP('',(#148));
#67=EDGE_LOOP('',(#149,#150,#151,#152,#153,#154,#155));
#68=EDGE_LOOP('',(#156,#157,#158));
#69=EDGE_LOOP('',(#159,#160,#161));
#70=EDGE_LOOP('',(#162,#163,#164,#165,#166));
#71=EDGE_LOOP('',(#167,#168,#169,#170,#171));
#72=EDGE_LOOP('',(#172,#173,#174,#175,#176,#177));
#73=EDGE_LOOP('',(#178,#179,#180,#181,#182,#183));
#74=EDGE_LOOP('',(#184));
#75=EDGE_LOOP('',(#185));
#76=EDGE_LOOP('',(#186,#187,#188,#189,#190));
#77=EDGE_LOOP('',(#191));
#78=EDGE_LOOP('',(#192));
#79=EDGE_LOOP('',(#193,#194,#195,#196,#197));
#80=CIRCLE('',#252,8.4);
#81=CIRCLE('',#253,8.25);
#82=CIRCLE('',#255,8.40000000000001);
#83=CIRCLE('',#258,2.5);
#84=CIRCLE('',#262,8.24999999999998);
#85=CIRCLE('',#263,8.24999999999998);
#86=CIRCLE('',#264,8.25000000000001);
#87=CIRCLE('',#266,8.99999999999999);
#88=CIRCLE('',#267,8.99999999999999);
#89=CIRCLE('',#269,8.99999999999999);
#90=CIRCLE('',#270,8.99999999999999);
#91=CIRCLE('',#273,3.4);
#92=CIRCLE('',#275,3.4);
#93=CIRCLE('',#276,3.4);
#94=CIRCLE('',#278,2.9);
#95=VERTEX_POINT('',#351);
#96=VERTEX_POINT('',#353);
#97=VERTEX_POINT('',#356);
#98=VERTEX_POINT('',#361);
#99=VERTEX_POINT('',#362);
#100=VERTEX_POINT('',#379);
#101=VERTEX_POINT('',#396);
#102=VERTEX_POINT('',#413);
#103=VERTEX_POINT('',#436);
#104=VERTEX_POINT('',#437);
#105=VERTEX_POINT('',#440);
#106=VERTEX_POINT('',#444);
#107=VERTEX_POINT('',#446);
#108=VERTEX_POINT('',#450);
#109=VERTEX_POINT('',#452);
#110=VERTEX_POINT('',#458);
#111=VERTEX_POINT('',#461);
#112=VERTEX_POINT('',#463);
#113=VERTEX_POINT('',#467);
#114=EDGE_CURVE('',#95,#95,#80,.T.);
#115=EDGE_CURVE('',#96,#96,#81,.T.);
#116=EDGE_CURVE('',#97,#97,#82,.T.);
#117=EDGE_CURVE('',#97,#95,#21,.T.);
#118=EDGE_CURVE('',#98,#99,#17,.T.);
#119=EDGE_CURVE('',#100,#98,#18,.T.);
#120=EDGE_CURVE('',#101,#100,#19,.T.);
#121=EDGE_CURVE('',#101,#102,#22,.T.);
#122=EDGE_CURVE('',#102,#102,#83,.T.);
#123=EDGE_CURVE('',#99,#101,#20,.T.);
#124=EDGE_CURVE('',#100,#99,#23,.T.);
#125=EDGE_CURVE('',#103,#104,#84,.T.);
#126=EDGE_CURVE('',#104,#103,#85,.T.);
#127=EDGE_CURVE('',#104,#105,#24,.T.);
#128=EDGE_CURVE('',#105,#105,#86,.T.);
#129=EDGE_CURVE('',#96,#106,#25,.T.);
#130=EDGE_CURVE('',#106,#107,#87,.T.);
#131=EDGE_CURVE('',#107,#106,#88,.T.);
#132=EDGE_CURVE('',#107,#108,#26,.T.);
#133=EDGE_CURVE('',#109,#108,#89,.T.);
#134=EDGE_CURVE('',#108,#109,#90,.T.);
#135=EDGE_CURVE('',#109,#103,#27,.T.);
#136=EDGE_CURVE('',#110,#110,#91,.T.);
#137=EDGE_CURVE('',#110,#111,#28,.T.);
#138=EDGE_CURVE('',#112,#111,#92,.T.);
#139=EDGE_CURVE('',#111,#112,#93,.T.);
#140=EDGE_CURVE('',#113,#113,#94,.T.);
#141=EDGE_CURVE('',#112,#113,#29,.T.);
#142=ORIENTED_EDGE('',*,*,#114,.F.);
#143=ORIENTED_EDGE('',*,*,#115,.F.);
#144=ORIENTED_EDGE('',*,*,#116,.F.);
#145=ORIENTED_EDGE('',*,*,#117,.T.);
#146=ORIENTED_EDGE('',*,*,#114,.T.);
#147=ORIENTED_EDGE('',*,*,#117,.F.);
#148=ORIENTED_EDGE('',*,*,#116,.T.);
#149=ORIENTED_EDGE('',*,*,#118,.F.);
#150=ORIENTED_EDGE('',*,*,#119,.F.);
#151=ORIENTED_EDGE('',*,*,#120,.F.);
#152=ORIENTED_EDGE('',*,*,#121,.T.);
#153=ORIENTED_EDGE('',*,*,#122,.F.);
#154=ORIENTED_EDGE('',*,*,#121,.F.);
#155=ORIENTED_EDGE('',*,*,#123,.F.);
#156=ORIENTED_EDGE('',*,*,#123,.T.);
#157=ORIENTED_EDGE('',*,*,#120,.T.);
#158=ORIENTED_EDGE('',*,*,#124,.T.);
#159=ORIENTED_EDGE('',*,*,#118,.T.);
#160=ORIENTED_EDGE('',*,*,#124,.F.);
#161=ORIENTED_EDGE('',*,*,#119,.T.);
#162=ORIENTED_EDGE('',*,*,#125,.F.);
#163=ORIENTED_EDGE('',*,*,#126,.F.);
#164=ORIENTED_EDGE('',*,*,#127,.T.);
#165=ORIENTED_EDGE('',*,*,#128,.T.);
#166=ORIENTED_EDGE('',*,*,#127,.F.);
#167=ORIENTED_EDGE('',*,*,#115,.T.);
#168=ORIENTED_EDGE('',*,*,#129,.T.);
#169=ORIENTED_EDGE('',*,*,#130,.T.);
#170=ORIENTED_EDGE('',*,*,#131,.T.);
#171=ORIENTED_EDGE('',*,*,#129,.F.);
#172=ORIENTED_EDGE('',*,*,#130,.F.);
#173=ORIENTED_EDGE('',*,*,#131,.F.);
#174=ORIENTED_EDGE('',*,*,#132,.T.);
#175=ORIENTED_EDGE('',*,*,#133,.F.);
#176=ORIENTED_EDGE('',*,*,#134,.F.);
#177=ORIENTED_EDGE('',*,*,#132,.F.);
#178=ORIENTED_EDGE('',*,*,#133,.T.);
#179=ORIENTED_EDGE('',*,*,#134,.T.);
#180=ORIENTED_EDGE('',*,*,#135,.T.);
#181=ORIENTED_EDGE('',*,*,#125,.T.);
#182=ORIENTED_EDGE('',*,*,#126,.T.);
#183=ORIENTED_EDGE('',*,*,#135,.F.);
#184=ORIENTED_EDGE('',*,*,#128,.F.);
#185=ORIENTED_EDGE('',*,*,#136,.T.);
#186=ORIENTED_EDGE('',*,*,#136,.F.);
#187=ORIENTED_EDGE('',*,*,#137,.T.);
#188=ORIENTED_EDGE('',*,*,#138,.F.);
#189=ORIENTED_EDGE('',*,*,#139,.F.);
#190=ORIENTED_EDGE('',*,*,#137,.F.);
#191=ORIENTED_EDGE('',*,*,#140,.F.);
#192=ORIENTED_EDGE('',*,*,#122,.T.);
#193=ORIENTED_EDGE('',*,*,#138,.T.);
#194=ORIENTED_EDGE('',*,*,#139,.T.);
#195=ORIENTED_EDGE('',*,*,#141,.T.);
#196=ORIENTED_EDGE('',*,*,#140,.T.);
#197=ORIENTED_EDGE('',*,*,#141,.F.);
#198=PLANE('',#251);
#199=PLANE('',#256);
#200=PLANE('',#272);
#201=PLANE('',#277);
#202=STYLED_ITEM('',(#491),#217);
#203=STYLED_ITEM('',(#491),#218);
#204=STYLED_ITEM('',(#491),#219);
#205=STYLED_ITEM('',(#492),#220);
#206=STYLED_ITEM('',(#492),#221);
#207=STYLED_ITEM('',(#492),#222);
#208=STYLED_ITEM('',(#493),#223);
#209=STYLED_ITEM('',(#494),#224);
#210=STYLED_ITEM('',(#494),#225);
#211=STYLED_ITEM('',(#494),#226);
#212=STYLED_ITEM('',(#493),#227);
#213=STYLED_ITEM('',(#493),#228);
#214=STYLED_ITEM('',(#493),#229);
#215=STYLED_ITEM('',(#493),#230);
#216=STYLED_ITEM('',(#490),#13);
#217=ADVANCED_FACE('',(#49,#46),#198,.T.);
#218=ADVANCED_FACE('',(#50),#39,.T.);
#219=ADVANCED_FACE('',(#51),#199,.T.);
#220=ADVANCED_FACE('',(#52),#40,.T.);
#221=ADVANCED_FACE('',(#53),#41,.F.);
#222=ADVANCED_FACE('',(#54),#42,.T.);
#223=ADVANCED_FACE('',(#55),#43,.T.);
#224=ADVANCED_FACE('',(#56),#14,.T.);
#225=ADVANCED_FACE('',(#57),#44,.T.);
#226=ADVANCED_FACE('',(#58),#15,.T.);
#227=ADVANCED_FACE('',(#59,#47),#200,.T.);
#228=ADVANCED_FACE('',(#60),#45,.T.);
#229=ADVANCED_FACE('',(#61,#48),#201,.T.);
#230=ADVANCED_FACE('',(#62),#16,.T.);
#231=CLOSED_SHELL('',(#217,#218,#219,#220,#221,#222,#223,#224,#225,#226,
#227,#228,#229,#230));
#232=DERIVED_UNIT_ELEMENT(#234,1.);
#233=DERIVED_UNIT_ELEMENT(#476,3.);
#234=(
MASS_UNIT()
NAMED_UNIT(*)
SI_UNIT($,.GRAM.)
);
#235=DERIVED_UNIT((#232,#233));
#236=MEASURE_REPRESENTATION_ITEM('density measure',
POSITIVE_RATIO_MEASURE(1.),#235);
#237=PROPERTY_DEFINITION_REPRESENTATION(#242,#239);
#238=PROPERTY_DEFINITION_REPRESENTATION(#243,#240);
#239=REPRESENTATION('material name',(#241),#473);
#240=REPRESENTATION('density',(#236),#473);
#241=DESCRIPTIVE_REPRESENTATION_ITEM('Allgemein','Allgemein');
#242=PROPERTY_DEFINITION('material property','material name',#483);
#243=PROPERTY_DEFINITION('material property','density of part',#483);
#244=DATE_TIME_ROLE('creation_date');
#245=APPLIED_DATE_AND_TIME_ASSIGNMENT(#246,#244,(#483));
#246=DATE_AND_TIME(#247,#248);
#247=CALENDAR_DATE(2022,18,3);
#248=LOCAL_TIME(0,0,0.,#249);
#249=COORDINATED_UNIVERSAL_TIME_OFFSET(0,0,.BEHIND.);
#250=AXIS2_PLACEMENT_3D('placement',#349,#280,#281);
#251=AXIS2_PLACEMENT_3D('',#350,#282,#283);
#252=AXIS2_PLACEMENT_3D('',#352,#284,#285);
#253=AXIS2_PLACEMENT_3D('',#354,#286,#287);
#254=AXIS2_PLACEMENT_3D('',#355,#288,#289);
#255=AXIS2_PLACEMENT_3D('',#357,#290,#291);
#256=AXIS2_PLACEMENT_3D('',#359,#293,#294);
#257=AXIS2_PLACEMENT_3D('',#360,#295,#296);
#258=AXIS2_PLACEMENT_3D('',#415,#298,#299);
#259=AXIS2_PLACEMENT_3D('',#432,#300,#301);
#260=AXIS2_PLACEMENT_3D('',#434,#303,#304);
#261=AXIS2_PLACEMENT_3D('',#435,#305,#306);
#262=AXIS2_PLACEMENT_3D('',#438,#307,#308);
#263=AXIS2_PLACEMENT_3D('',#439,#309,#310);
#264=AXIS2_PLACEMENT_3D('',#442,#312,#313);
#265=AXIS2_PLACEMENT_3D('',#443,#314,#315);
#266=AXIS2_PLACEMENT_3D('',#447,#317,#318);
#267=AXIS2_PLACEMENT_3D('',#448,#319,#320);
#268=AXIS2_PLACEMENT_3D('',#449,#321,#322);
#269=AXIS2_PLACEMENT_3D('',#453,#324,#325);
#270=AXIS2_PLACEMENT_3D('',#454,#326,#327);
#271=AXIS2_PLACEMENT_3D('',#455,#328,#329);
#272=AXIS2_PLACEMENT_3D('',#457,#331,#332);
#273=AXIS2_PLACEMENT_3D('',#459,#333,#334);
#274=AXIS2_PLACEMENT_3D('',#460,#335,#336);
#275=AXIS2_PLACEMENT_3D('',#464,#338,#339);
#276=AXIS2_PLACEMENT_3D('',#465,#340,#341);
#277=AXIS2_PLACEMENT_3D('',#466,#342,#343);
#278=AXIS2_PLACEMENT_3D('',#468,#344,#345);
#279=AXIS2_PLACEMENT_3D('',#469,#346,#347);
#280=DIRECTION('axis',(0.,0.,1.));
#281=DIRECTION('refdir',(1.,0.,0.));
#282=DIRECTION('center_axis',(-3.06161699786838E-16,1.,0.));
#283=DIRECTION('ref_axis',(0.,0.,1.));
#284=DIRECTION('center_axis',(3.06161699786838E-16,-1.,0.));
#285=DIRECTION('ref_axis',(1.,0.,0.));
#286=DIRECTION('center_axis',(-1.86387807053858E-16,1.,0.));
#287=DIRECTION('ref_axis',(-1.,-1.86387807053858E-16,0.));
#288=DIRECTION('center_axis',(3.06161699786838E-16,-1.,0.));
#289=DIRECTION('ref_axis',(1.,0.,0.));
#290=DIRECTION('center_axis',(3.06161699786838E-16,-1.,0.));
#291=DIRECTION('ref_axis',(1.,0.,0.));
#292=DIRECTION('',(-3.06161699786838E-16,1.,0.));
#293=DIRECTION('center_axis',(3.06161699786838E-16,-1.,0.));
#294=DIRECTION('ref_axis',(0.,0.,-1.));
#295=DIRECTION('center_axis',(-3.94869685415265E-16,1.,7.50947306837913E-16));
#296=DIRECTION('ref_axis',(1.,3.94869685415265E-16,1.22464679914735E-16));
#297=DIRECTION('',(3.94869685415265E-16,-1.,-7.50947306837913E-16));
#298=DIRECTION('center_axis',(3.94869685415265E-16,-1.,2.7755575615629E-17));
#299=DIRECTION('ref_axis',(6.12323399573674E-17,0.,-1.));
#300=DIRECTION('center_axis',(1.22464679914735E-16,7.50947306837913E-16,
-1.));
#301=DIRECTION('ref_axis',(-0.833333333333334,0.552770798392566,3.13047842422594E-16));
#302=DIRECTION('',(1.22464679914735E-16,7.50947306837913E-16,-1.));
#303=DIRECTION('center_axis',(1.22464679914735E-16,7.50947306837913E-16,
-1.));
#304=DIRECTION('ref_axis',(-0.833333333333334,0.552770798392566,3.13047842422594E-16));
#305=DIRECTION('center_axis',(1.86387807053858E-16,-1.,0.));
#306=DIRECTION('ref_axis',(1.,3.46944695195361E-16,0.));
#307=DIRECTION('center_axis',(1.86387807053858E-16,-1.,0.));
#308=DIRECTION('ref_axis',(1.,3.46944695195361E-16,0.));
#309=DIRECTION('center_axis',(1.86387807053858E-16,-1.,0.));
#310=DIRECTION('ref_axis',(1.,3.46944695195361E-16,0.));
#311=DIRECTION('',(-1.86387807053858E-16,1.,0.));
#312=DIRECTION('center_axis',(3.94869685415265E-16,-1.,2.7755575615629E-17));
#313=DIRECTION('ref_axis',(6.12323399573674E-17,0.,-1.));
#314=DIRECTION('center_axis',(-1.86387807053858E-16,1.,0.));
#315=DIRECTION('ref_axis',(-1.,-2.70156618258121E-16,0.));
#316=DIRECTION('',(0.707106781186543,0.707106781186552,8.65956056235488E-17));
#317=DIRECTION('center_axis',(1.86387807053858E-16,-1.,0.));
#318=DIRECTION('ref_axis',(-1.,-3.46944695195361E-16,0.));
#319=DIRECTION('center_axis',(1.86387807053858E-16,-1.,0.));
#320=DIRECTION('ref_axis',(-1.,-3.46944695195361E-16,0.));
#321=DIRECTION('center_axis',(1.86387807053858E-16,-1.,0.));
#322=DIRECTION('ref_axis',(1.,3.46944695195361E-16,0.));
#323=DIRECTION('',(-1.86387807053858E-16,1.,0.));
#324=DIRECTION('center_axis',(-1.86387807053858E-16,1.,0.));
#325=DIRECTION('ref_axis',(-1.,-3.46944695195361E-16,0.));
#326=DIRECTION('center_axis',(-1.86387807053858E-16,1.,0.));
#327=DIRECTION('ref_axis',(-1.,-3.46944695195361E-16,0.));
#328=DIRECTION('center_axis',(1.86387807053858E-16,-1.,0.));
#329=DIRECTION('ref_axis',(-1.,-2.70156618258121E-16,0.));
#330=DIRECTION('',(-0.707106781186551,0.707106781186544,-8.65956056235498E-17));
#331=DIRECTION('center_axis',(-3.94869685415265E-16,1.,-2.7755575615629E-17));
#332=DIRECTION('ref_axis',(1.,3.94869685415265E-16,6.12323399573674E-17));
#333=DIRECTION('center_axis',(3.94869685415265E-16,-1.,2.7755575615629E-17));
#334=DIRECTION('ref_axis',(6.12323399573674E-17,0.,-1.));
#335=DIRECTION('center_axis',(3.94869685415265E-16,-1.,2.7755575615629E-17));
#336=DIRECTION('ref_axis',(6.12323399573674E-17,0.,-1.));
#337=DIRECTION('',(-3.94869685415265E-16,1.,-2.7755575615629E-17));
#338=DIRECTION('center_axis',(-3.94869685415265E-16,1.,-2.7755575615629E-17));
#339=DIRECTION('ref_axis',(-6.12323399573674E-17,0.,1.));
#340=DIRECTION('center_axis',(-3.94869685415265E-16,1.,-2.7755575615629E-17));
#341=DIRECTION('ref_axis',(-6.12323399573674E-17,0.,1.));
#342=DIRECTION('center_axis',(-3.94869685415265E-16,1.,-2.7755575615629E-17));
#343=DIRECTION('ref_axis',(1.,3.94869685415265E-16,6.12323399573674E-17));
#344=DIRECTION('center_axis',(3.94869685415265E-16,-1.,2.7755575615629E-17));
#345=DIRECTION('ref_axis',(-6.12323399573674E-17,2.77555756156289E-17,1.));
#346=DIRECTION('center_axis',(3.94869685415265E-16,-1.,2.7755575615629E-17));
#347=DIRECTION('ref_axis',(-6.12323399573674E-17,1.27763760770355E-17,1.));
#348=DIRECTION('',(-4.09108440677455E-16,0.707106781186543,0.707106781186552));
#349=CARTESIAN_POINT('',(0.,0.,0.));
#350=CARTESIAN_POINT('Origin',(8.05,2.22044604925031E-15,0.));
#351=CARTESIAN_POINT('',(-8.4,3.53883589099269E-15,-1.02870331128378E-15));
#352=CARTESIAN_POINT('Origin',(-4.93038065763132E-31,9.71445146547012E-16,
0.));
#353=CARTESIAN_POINT('',(8.25,1.11427493347415E-17,-1.01030024190346E-15));
#354=CARTESIAN_POINT('Origin',(0.,-1.52655665885959E-15,0.));
#355=CARTESIAN_POINT('Origin',(1.53080849893418E-16,-0.499999999999999,
0.));
#356=CARTESIAN_POINT('',(-8.4,-1.,-1.02870331128378E-15));
#357=CARTESIAN_POINT('Origin',(3.06161699786838E-16,-0.999999999999999,
0.));
#358=CARTESIAN_POINT('',(-8.4,-0.499999999999999,-1.02870331128378E-15));
#359=CARTESIAN_POINT('Origin',(4.20000000000001,-0.999999999999996,0.));
#360=CARTESIAN_POINT('Origin',(-1.13797860024079E-14,54.5,-8.04911692853238E-15));
#361=CARTESIAN_POINT('',(2.49999999999999,84.5,1.49880108324396E-14));
#362=CARTESIAN_POINT('',(-1.55431223447522E-14,84.5,-2.49999999999999));
#363=CARTESIAN_POINT('Ctrl Pts',(2.49999999999998,84.5,1.49880108324396E-14));
#364=CARTESIAN_POINT('Ctrl Pts',(2.49999999999998,84.5,-0.179446426508353));
#365=CARTESIAN_POINT('Ctrl Pts',(2.48077868573211,84.5303808168916,-0.354679132423275));
#366=CARTESIAN_POINT('Ctrl Pts',(2.40803560994338,84.6261253102278,-0.693888847942414));
#367=CARTESIAN_POINT('Ctrl Pts',(2.35442613592637,84.6904513545459,-0.858139072982626));
#368=CARTESIAN_POINT('Ctrl Pts',(2.14428336669417,84.8905471090836,-1.33077484340052));
#369=CARTESIAN_POINT('Ctrl Pts',(1.93698279644252,85.0315710465565,-1.61893245017803));
#370=CARTESIAN_POINT('Ctrl Pts',(1.55460333159272,85.1451343825231,-1.9648076899354));
#371=CARTESIAN_POINT('Ctrl Pts',(1.40744693643991,85.1707803207499,-2.07410282221983));
#372=CARTESIAN_POINT('Ctrl Pts',(1.09376497786307,85.170907039283,-2.25532427148995));
#373=CARTESIAN_POINT('Ctrl Pts',(0.927248431286276,85.1445894953283,-2.32726587461114));
#374=CARTESIAN_POINT('Ctrl Pts',(0.605584458054663,85.0369656053164,-2.43200734362809));
#375=CARTESIAN_POINT('Ctrl Pts',(0.413587219517808,84.9297102544193,-2.46960535454969));
#376=CARTESIAN_POINT('Ctrl Pts',(0.171397730482273,84.7218168843107,-2.49621096535459));
#377=CARTESIAN_POINT('Ctrl Pts',(0.0777056719620097,84.617145708173,-2.49999999999999));
#378=CARTESIAN_POINT('Ctrl Pts',(-1.68788594212543E-14,84.5,-2.49999999999999));
#379=CARTESIAN_POINT('',(-1.60982338570648E-14,84.5,2.50000000000002));
#380=CARTESIAN_POINT('Ctrl Pts',(-2.87617152316955E-14,84.5,2.50000000000001));
#381=CARTESIAN_POINT('Ctrl Pts',(0.0777056719619905,84.6171457081729,2.50000000000001));
#382=CARTESIAN_POINT('Ctrl Pts',(0.171397730482272,84.7218168843107,2.49621096535462));
#383=CARTESIAN_POINT('Ctrl Pts',(0.413587219517807,84.9297102544193,2.46960535454973));
#384=CARTESIAN_POINT('Ctrl Pts',(0.605584458054662,85.0369656053164,2.43200734362812));
#385=CARTESIAN_POINT('Ctrl Pts',(0.927248431286274,85.1445894953283,2.32726587461117));
#386=CARTESIAN_POINT('Ctrl Pts',(1.09376497786307,85.170907039283,2.25532427148998));
#387=CARTESIAN_POINT('Ctrl Pts',(1.40744693643991,85.1707803207499,2.07410282221986));
#388=CARTESIAN_POINT('Ctrl Pts',(1.55460333159272,85.1451343825231,1.96480768993543));
#389=CARTESIAN_POINT('Ctrl Pts',(1.93698279644252,85.0315710465565,1.61893245017806));
#390=CARTESIAN_POINT('Ctrl Pts',(2.14428336669417,84.8905471090836,1.33077484340055));
#391=CARTESIAN_POINT('Ctrl Pts',(2.35442613592637,84.6904513545459,0.858139072982656));
#392=CARTESIAN_POINT('Ctrl Pts',(2.40803560994338,84.6261253102278,0.693888847942444));
#393=CARTESIAN_POINT('Ctrl Pts',(2.48077868573211,84.5303808168916,0.354679132423306));
#394=CARTESIAN_POINT('Ctrl Pts',(2.49999999999998,84.5,0.179446426508383));
#395=CARTESIAN_POINT('Ctrl Pts',(2.49999999999998,84.5,1.42594269725294E-14));
#396=CARTESIAN_POINT('',(-2.50000000000002,84.5,1.4432899320127E-14));
#397=CARTESIAN_POINT('Ctrl Pts',(-2.50000000000002,84.5,1.4432899320127E-14));
#398=CARTESIAN_POINT('Ctrl Pts',(-2.50000000000002,84.5,0.179446426508385));
#399=CARTESIAN_POINT('Ctrl Pts',(-2.48077868573215,84.4696191831084,0.35467913242331));
#400=CARTESIAN_POINT('Ctrl Pts',(-2.40803560994342,84.3738746897722,0.693888847942451));
#401=CARTESIAN_POINT('Ctrl Pts',(-2.35442613592641,84.3095486454541,0.85813907298266));
#402=CARTESIAN_POINT('Ctrl Pts',(-2.14428336669422,84.1094528909164,1.33077484340055));
#403=CARTESIAN_POINT('Ctrl Pts',(-1.93698279644256,83.9684289534436,1.61893245017806));
#404=CARTESIAN_POINT('Ctrl Pts',(-1.55460333159276,83.8548656174769,1.96480768993543));
#405=CARTESIAN_POINT('Ctrl Pts',(-1.40744693643995,83.8292196792501,2.07410282221986));
#406=CARTESIAN_POINT('Ctrl Pts',(-1.09376497786311,83.8290929607169,2.25532427148999));
#407=CARTESIAN_POINT('Ctrl Pts',(-0.927248431286313,83.8554105046717,2.32726587461118));
#408=CARTESIAN_POINT('Ctrl Pts',(-0.605584458054698,83.9630343946836,2.43200734362812));
#409=CARTESIAN_POINT('Ctrl Pts',(-0.413587219517842,84.0702897455807,2.46960535454973));
#410=CARTESIAN_POINT('Ctrl Pts',(-0.171397730482312,84.2781831156893,2.49621096535462));
#411=CARTESIAN_POINT('Ctrl Pts',(-0.0777056719620424,84.3828542918271,2.50000000000001));
#412=CARTESIAN_POINT('Ctrl Pts',(-2.21871132577434E-14,84.5,2.50000000000001));
#413=CARTESIAN_POINT('',(-2.50000000000002,74.5,6.96982920822586E-15));
#414=CARTESIAN_POINT('',(-2.50000000000001,54.5,-8.04911692853238E-15));
#415=CARTESIAN_POINT('Origin',(-1.83717197355244E-14,74.5,-1.66533453693779E-16));
#416=CARTESIAN_POINT('Ctrl Pts',(-2.43902120722339E-14,84.5,-2.49999999999999));
#417=CARTESIAN_POINT('Ctrl Pts',(-0.0777056719620438,84.3828542918271,-2.49999999999999));
#418=CARTESIAN_POINT('Ctrl Pts',(-0.171397730482311,84.2781831156893,-2.49621096535459));
#419=CARTESIAN_POINT('Ctrl Pts',(-0.413587219517842,84.0702897455807,-2.4696053545497));
#420=CARTESIAN_POINT('Ctrl Pts',(-0.605584458054698,83.9630343946836,-2.43200734362809));
#421=CARTESIAN_POINT('Ctrl Pts',(-0.927248431286312,83.8554105046717,-2.32726587461115));
#422=CARTESIAN_POINT('Ctrl Pts',(-1.09376497786311,83.829092960717,-2.25532427148996));
#423=CARTESIAN_POINT('Ctrl Pts',(-1.40744693643995,83.8292196792501,-2.07410282221983));
#424=CARTESIAN_POINT('Ctrl Pts',(-1.55460333159276,83.8548656174769,-1.9648076899354));
#425=CARTESIAN_POINT('Ctrl Pts',(-1.93698279644256,83.9684289534436,-1.61893245017804));
#426=CARTESIAN_POINT('Ctrl Pts',(-2.14428336669421,84.1094528909164,-1.33077484340053));
#427=CARTESIAN_POINT('Ctrl Pts',(-2.35442613592641,84.3095486454541,-0.858139072982633));
#428=CARTESIAN_POINT('Ctrl Pts',(-2.40803560994342,84.3738746897722,-0.693888847942423));
#429=CARTESIAN_POINT('Ctrl Pts',(-2.48077868573215,84.4696191831084,-0.354679132423283));
#430=CARTESIAN_POINT('Ctrl Pts',(-2.50000000000002,84.5,-0.179446426508356));
#431=CARTESIAN_POINT('Ctrl Pts',(-2.50000000000002,84.5,1.4432899320127E-14));
#432=CARTESIAN_POINT('Origin',(-1.25000000000002,85.3291561975888,2.50000000000002));
#433=CARTESIAN_POINT('',(-1.60982338570648E-14,84.5,2.50000000000002));
#434=CARTESIAN_POINT('Origin',(1.24999999999998,83.6708438024112,2.50000000000001));
#435=CARTESIAN_POINT('Origin',(-1.15094470855758E-14,61.75,0.));
#436=CARTESIAN_POINT('',(8.24999999999997,55.,0.));
#437=CARTESIAN_POINT('',(-8.24999999999999,55.,-1.01033360929656E-15));
#438=CARTESIAN_POINT('Origin',(-1.02513293879622E-14,55.,0.));
#439=CARTESIAN_POINT('Origin',(-1.02513293879622E-14,55.,0.));
#440=CARTESIAN_POINT('',(-8.24999999999999,69.5,-1.01033360929656E-15));
#441=CARTESIAN_POINT('',(-8.24999999999999,61.75,-1.01033360929656E-15));
#442=CARTESIAN_POINT('Origin',(-1.63973713084481E-14,69.5,-2.7755575615634E-17));
#443=CARTESIAN_POINT('Origin',(-6.98954276451968E-17,0.374999999999998,
0.));
#444=CARTESIAN_POINT('',(8.99999999999999,0.75,1.10214571844014E-15));
#445=CARTESIAN_POINT('',(8.625,0.375,1.05625786426459E-15));
#446=CARTESIAN_POINT('',(-8.99999999999999,0.749999999999988,-1.10218211923262E-15));
#447=CARTESIAN_POINT('Origin',(-1.39790855290394E-16,0.749999999999997,
0.));
#448=CARTESIAN_POINT('Origin',(-1.39790855290394E-16,0.749999999999997,
0.));
#449=CARTESIAN_POINT('Origin',(-5.12566469398111E-15,27.5,0.));
#450=CARTESIAN_POINT('',(-9.,54.25,-1.10218211923262E-15));
#451=CARTESIAN_POINT('',(-9.,27.5,-1.10218211923262E-15));
#452=CARTESIAN_POINT('',(8.99999999999998,54.25,-1.10214571844014E-15));
#453=CARTESIAN_POINT('Origin',(-1.01115385326718E-14,54.25,0.));
#454=CARTESIAN_POINT('Origin',(-1.01115385326718E-14,54.25,0.));
#455=CARTESIAN_POINT('Origin',(-1.0181433960317E-14,54.625,0.));
#456=CARTESIAN_POINT('',(8.62499999999998,54.625,1.05625786426459E-15));
#457=CARTESIAN_POINT('Origin',(-1.60406929281964E-14,69.5,-5.825));
#458=CARTESIAN_POINT('',(-1.70219411760132E-14,69.5,3.4));
#459=CARTESIAN_POINT('Origin',(-1.63973713084481E-14,69.5,-2.7755575615634E-17));
#460=CARTESIAN_POINT('Origin',(-1.73845455219862E-14,72.,-9.71445146547065E-17));
#461=CARTESIAN_POINT('',(-1.87988547603819E-14,74.,3.4));
#462=CARTESIAN_POINT('',(-1.80091153895514E-14,72.,3.4));
#463=CARTESIAN_POINT('',(-1.83824748486718E-14,74.,-3.4));
#464=CARTESIAN_POINT('Origin',(-1.81742848928167E-14,74.,-1.52655665885964E-16));
#465=CARTESIAN_POINT('Origin',(-1.81742848928167E-14,74.,-1.52655665885964E-16));
#466=CARTESIAN_POINT('Origin',(-1.81910843326501E-14,74.5,-2.95));
#467=CARTESIAN_POINT('',(-1.78389983778953E-14,74.5,-2.9));
#468=CARTESIAN_POINT('Origin',(-1.83717197355244E-14,74.5,-1.66533453693779E-16));
#469=CARTESIAN_POINT('Origin',(-1.82730023141706E-14,74.25,-1.59594559789872E-16));
#470=CARTESIAN_POINT('',(-1.76943567015734E-14,74.25,-3.15));
#471=UNCERTAINTY_MEASURE_WITH_UNIT(LENGTH_MEASURE(0.01),#475,
'DISTANCE_ACCURACY_VALUE',
'Maximum model space distance between geometric entities at asserted c
onnectivities');
#472=UNCERTAINTY_MEASURE_WITH_UNIT(LENGTH_MEASURE(0.01),#475,
'DISTANCE_ACCURACY_VALUE',
'Maximum model space distance between geometric entities at asserted c
onnectivities');
#473=(
GEOMETRIC_REPRESENTATION_CONTEXT(3)
GLOBAL_UNCERTAINTY_ASSIGNED_CONTEXT((#471))
GLOBAL_UNIT_ASSIGNED_CONTEXT((#475,#477,#478))
REPRESENTATION_CONTEXT('','3D')
);
#474=(
GEOMETRIC_REPRESENTATION_CONTEXT(3)
GLOBAL_UNCERTAINTY_ASSIGNED_CONTEXT((#472))
GLOBAL_UNIT_ASSIGNED_CONTEXT((#475,#477,#478))
REPRESENTATION_CONTEXT('','3D')
);
#475=(
LENGTH_UNIT()
NAMED_UNIT(*)
SI_UNIT(.MILLI.,.METRE.)
);
#476=(
LENGTH_UNIT()
NAMED_UNIT(*)
SI_UNIT(.CENTI.,.METRE.)
);
#477=(
NAMED_UNIT(*)
PLANE_ANGLE_UNIT()
SI_UNIT($,.RADIAN.)
);
#478=(
NAMED_UNIT(*)
SI_UNIT($,.STERADIAN.)
SOLID_ANGLE_UNIT()
);
#479=SHAPE_DEFINITION_REPRESENTATION(#480,#481);
#480=PRODUCT_DEFINITION_SHAPE('',$,#483);
#481=SHAPE_REPRESENTATION('',(#250),#473);
#482=PRODUCT_DEFINITION_CONTEXT('part definition',#487,'design');
#483=PRODUCT_DEFINITION('IA0136_Shrinkwrap_1','IA0136_Shrinkwrap_1',#484,
#482);
#484=PRODUCT_DEFINITION_FORMATION('',$,#489);
#485=PRODUCT_RELATED_PRODUCT_CATEGORY('IA0136_Shrinkwrap_1',
'IA0136_Shrinkwrap_1',(#489));
#486=APPLICATION_PROTOCOL_DEFINITION('international standard',
'automotive_design',2009,#487);
#487=APPLICATION_CONTEXT(
'Core Data for Automotive Mechanical Design Process');
#488=PRODUCT_CONTEXT('part definition',#487,'mechanical');
#489=PRODUCT('IA0136_Shrinkwrap_1','IA0136_Shrinkwrap_1',$,(#488));
#490=PRESENTATION_STYLE_ASSIGNMENT((#495));
#491=PRESENTATION_STYLE_ASSIGNMENT((#496));
#492=PRESENTATION_STYLE_ASSIGNMENT((#497));
#493=PRESENTATION_STYLE_ASSIGNMENT((#498));
#494=PRESENTATION_STYLE_ASSIGNMENT((#499));
#495=SURFACE_STYLE_USAGE(.BOTH.,#510);
#496=SURFACE_STYLE_USAGE(.BOTH.,#511);
#497=SURFACE_STYLE_USAGE(.BOTH.,#512);
#498=SURFACE_STYLE_USAGE(.BOTH.,#513);
#499=SURFACE_STYLE_USAGE(.BOTH.,#514);
#500=SURFACE_STYLE_RENDERING_WITH_PROPERTIES($,#530,(#505));
#501=SURFACE_STYLE_RENDERING_WITH_PROPERTIES($,#531,(#506));
#502=SURFACE_STYLE_RENDERING_WITH_PROPERTIES($,#532,(#507));
#503=SURFACE_STYLE_RENDERING_WITH_PROPERTIES($,#533,(#508));
#504=SURFACE_STYLE_RENDERING_WITH_PROPERTIES($,#534,(#509));
#505=SURFACE_STYLE_TRANSPARENT(0.);
#506=SURFACE_STYLE_TRANSPARENT(0.);
#507=SURFACE_STYLE_TRANSPARENT(0.);
#508=SURFACE_STYLE_TRANSPARENT(0.420000016689301);
#509=SURFACE_STYLE_TRANSPARENT(0.);
#510=SURFACE_SIDE_STYLE('',(#515,#500));
#511=SURFACE_SIDE_STYLE('',(#516,#501));
#512=SURFACE_SIDE_STYLE('',(#517,#502));
#513=SURFACE_SIDE_STYLE('',(#518,#503));
#514=SURFACE_SIDE_STYLE('',(#519,#504));
#515=SURFACE_STYLE_FILL_AREA(#520);
#516=SURFACE_STYLE_FILL_AREA(#521);
#517=SURFACE_STYLE_FILL_AREA(#522);
#518=SURFACE_STYLE_FILL_AREA(#523);
#519=SURFACE_STYLE_FILL_AREA(#524);
#520=FILL_AREA_STYLE('',(#525));
#521=FILL_AREA_STYLE('',(#526));
#522=FILL_AREA_STYLE('',(#527));
#523=FILL_AREA_STYLE('',(#528));
#524=FILL_AREA_STYLE('',(#529));
#525=FILL_AREA_STYLE_COLOUR('',#530);
#526=FILL_AREA_STYLE_COLOUR('',#531);
#527=FILL_AREA_STYLE_COLOUR('',#532);
#528=FILL_AREA_STYLE_COLOUR('',#533);
#529=FILL_AREA_STYLE_COLOUR('',#534);
#530=COLOUR_RGB('',0.749019607843137,0.749019607843137,0.749019607843137);
#531=COLOUR_RGB('',0.494117647058824,0.494117647058824,0.505882352941176);
#532=COLOUR_RGB('',0.6,0.6,0.6);
#533=COLOUR_RGB('',0.8,0.8,0.8);
#534=COLOUR_RGB('',0.588235294117647,0.588235294117647,0.588235294117647);
ENDSEC;
END-ISO-10303-21;
