ISO-10303-21;
HEADER;
/* Generated by software containing ST-Developer
 * from STEP Tools, Inc. (www.steptools.com) 
 */

FILE_DESCRIPTION(
/* description */ (''),
/* implementation_level */ '2;1');

FILE_NAME(
/* name */ 
'E:\\Allgemein\\Inventor Pojekte\\Ger\X\E4te\\IA0253_Shrinkwrap_1.stp',

/* time_stamp */ '2022-03-18T11:40:06+01:00',
/* author */ ('Krieger Anja'),
/* organization */ (''),
/* preprocessor_version */ 'ST-DEVELOPER v18.1',
/* originating_system */ 'Autodesk Inventor 2021',
/* authorisation */ '');

FILE_SCHEMA (('AUTOMOTIVE_DESIGN { 1 0 10303 214 3 1 1 }'));
ENDSEC;

DATA;
#10=MECHANICAL_DESIGN_GEOMETRIC_PRESENTATION_REPRESENTATION('',(#195,#196,
#197,#198,#199,#200,#201,#202,#203,#204,#205,#206,#207,#208,#209),#418);
#11=SHAPE_REPRESENTATION_RELATIONSHIP('SRR','None',#425,#12);
#12=ADVANCED_BREP_SHAPE_REPRESENTATION('',(#13),#417);
#13=MANIFOLD_SOLID_BREP('Volumenk\X\F6rper1',#224);
#14=TOROIDAL_SURFACE('',#260,7.9,0.3);
#15=TOROIDAL_SURFACE('',#272,8.24999999999999,1.5);
#16=FACE_BOUND('',#46,.T.);
#17=FACE_BOUND('',#51,.T.);
#18=FACE_BOUND('',#55,.T.);
#19=CONICAL_SURFACE('',#248,8.775,0.785398163397456);
#20=CONICAL_SURFACE('',#256,8.775,0.785398163397449);
#21=PLANE('',#247);
#22=PLANE('',#258);
#23=PLANE('',#266);
#24=PLANE('',#267);
#25=PLANE('',#275);
#26=FACE_OUTER_BOUND('',#40,.T.);
#27=FACE_OUTER_BOUND('',#41,.T.);
#28=FACE_OUTER_BOUND('',#42,.T.);
#29=FACE_OUTER_BOUND('',#43,.T.);
#30=FACE_OUTER_BOUND('',#44,.T.);
#31=FACE_OUTER_BOUND('',#45,.T.);
#32=FACE_OUTER_BOUND('',#47,.T.);
#33=FACE_OUTER_BOUND('',#48,.T.);
#34=FACE_OUTER_BOUND('',#49,.T.);
#35=FACE_OUTER_BOUND('',#50,.T.);
#36=FACE_OUTER_BOUND('',#52,.T.);
#37=FACE_OUTER_BOUND('',#53,.T.);
#38=FACE_OUTER_BOUND('',#54,.T.);
#39=FACE_OUTER_BOUND('',#56,.T.);
#40=EDGE_LOOP('',(#136,#137,#138,#139));
#41=EDGE_LOOP('',(#140));
#42=EDGE_LOOP('',(#141,#142,#143,#144,#145,#146));
#43=EDGE_LOOP('',(#147,#148,#149,#150,#151,#152));
#44=EDGE_LOOP('',(#153,#154,#155,#156,#157));
#45=EDGE_LOOP('',(#158));
#46=EDGE_LOOP('',(#159));
#47=EDGE_LOOP('',(#160,#161,#162,#163,#164));
#48=EDGE_LOOP('',(#165,#166,#167,#168,#169));
#49=EDGE_LOOP('',(#170));
#50=EDGE_LOOP('',(#171));
#51=EDGE_LOOP('',(#172));
#52=EDGE_LOOP('',(#173,#174,#175,#176,#177));
#53=EDGE_LOOP('',(#178,#179,#180,#181,#182));
#54=EDGE_LOOP('',(#183));
#55=EDGE_LOOP('',(#184));
#56=EDGE_LOOP('',(#185,#186,#187,#188,#189));
#57=LINE('',#360,#64);
#58=LINE('',#369,#65);
#59=LINE('',#378,#66);
#60=LINE('',#382,#67);
#61=LINE('',#395,#68);
#62=LINE('',#404,#69);
#63=LINE('',#414,#70);
#64=VECTOR('',#284,2.25);
#65=VECTOR('',#295,8.77499999999997);
#66=VECTOR('',#306,9.);
#67=VECTOR('',#311,8.77500000000002);
#68=VECTOR('',#328,8.2);
#69=VECTOR('',#339,6.74999999999999);
#70=VECTOR('',#354,8.54999999999999);
#71=CIRCLE('',#245,2.25);
#72=CIRCLE('',#246,2.25);
#73=CIRCLE('',#249,9.);
#74=CIRCLE('',#250,9.);
#75=CIRCLE('',#251,8.54999999999999);
#76=CIRCLE('',#252,8.54999999999999);
#77=CIRCLE('',#254,9.);
#78=CIRCLE('',#255,9.);
#79=CIRCLE('',#257,8.55);
#80=CIRCLE('',#259,8.2);
#81=CIRCLE('',#261,7.9);
#82=CIRCLE('',#262,0.3);
#83=CIRCLE('',#263,8.2);
#84=CIRCLE('',#264,8.2);
#85=CIRCLE('',#268,6.74999999999999);
#86=CIRCLE('',#270,6.74999999999999);
#87=CIRCLE('',#271,6.74999999999999);
#88=CIRCLE('',#273,1.5);
#89=CIRCLE('',#274,8.24999999999999);
#90=CIRCLE('',#276,8.54999999999999);
#91=VERTEX_POINT('',#357);
#92=VERTEX_POINT('',#359);
#93=VERTEX_POINT('',#364);
#94=VERTEX_POINT('',#365);
#95=VERTEX_POINT('',#368);
#96=VERTEX_POINT('',#370);
#97=VERTEX_POINT('',#374);
#98=VERTEX_POINT('',#375);
#99=VERTEX_POINT('',#380);
#100=VERTEX_POINT('',#384);
#101=VERTEX_POINT('',#387);
#102=VERTEX_POINT('',#389);
#103=VERTEX_POINT('',#391);
#104=VERTEX_POINT('',#398);
#105=VERTEX_POINT('',#401);
#106=VERTEX_POINT('',#402);
#107=VERTEX_POINT('',#407);
#108=VERTEX_POINT('',#411);
#109=EDGE_CURVE('',#91,#91,#71,.T.);
#110=EDGE_CURVE('',#91,#92,#57,.T.);
#111=EDGE_CURVE('',#92,#92,#72,.T.);
#112=EDGE_CURVE('',#93,#94,#73,.T.);
#113=EDGE_CURVE('',#94,#93,#74,.T.);
#114=EDGE_CURVE('',#93,#95,#58,.T.);
#115=EDGE_CURVE('',#95,#96,#75,.T.);
#116=EDGE_CURVE('',#96,#95,#76,.T.);
#117=EDGE_CURVE('',#97,#98,#77,.T.);
#118=EDGE_CURVE('',#98,#97,#78,.T.);
#119=EDGE_CURVE('',#98,#94,#59,.T.);
#120=EDGE_CURVE('',#99,#99,#79,.T.);
#121=EDGE_CURVE('',#99,#97,#60,.T.);
#122=EDGE_CURVE('',#100,#100,#80,.T.);
#123=EDGE_CURVE('',#101,#101,#81,.T.);
#124=EDGE_CURVE('',#101,#102,#82,.T.);
#125=EDGE_CURVE('',#102,#103,#83,.T.);
#126=EDGE_CURVE('',#103,#102,#84,.T.);
#127=EDGE_CURVE('',#103,#100,#61,.T.);
#128=EDGE_CURVE('',#104,#104,#85,.T.);
#129=EDGE_CURVE('',#105,#106,#86,.T.);
#130=EDGE_CURVE('',#105,#104,#62,.T.);
#131=EDGE_CURVE('',#106,#105,#87,.T.);
#132=EDGE_CURVE('',#106,#107,#88,.T.);
#133=EDGE_CURVE('',#107,#107,#89,.T.);
#134=EDGE_CURVE('',#108,#108,#90,.T.);
#135=EDGE_CURVE('',#96,#108,#63,.T.);
#136=ORIENTED_EDGE('',*,*,#109,.F.);
#137=ORIENTED_EDGE('',*,*,#110,.T.);
#138=ORIENTED_EDGE('',*,*,#111,.F.);
#139=ORIENTED_EDGE('',*,*,#110,.F.);
#140=ORIENTED_EDGE('',*,*,#109,.T.);
#141=ORIENTED_EDGE('',*,*,#112,.T.);
#142=ORIENTED_EDGE('',*,*,#113,.T.);
#143=ORIENTED_EDGE('',*,*,#114,.T.);
#144=ORIENTED_EDGE('',*,*,#115,.T.);
#145=ORIENTED_EDGE('',*,*,#116,.T.);
#146=ORIENTED_EDGE('',*,*,#114,.F.);
#147=ORIENTED_EDGE('',*,*,#117,.F.);
#148=ORIENTED_EDGE('',*,*,#118,.F.);
#149=ORIENTED_EDGE('',*,*,#119,.T.);
#150=ORIENTED_EDGE('',*,*,#112,.F.);
#151=ORIENTED_EDGE('',*,*,#113,.F.);
#152=ORIENTED_EDGE('',*,*,#119,.F.);
#153=ORIENTED_EDGE('',*,*,#120,.T.);
#154=ORIENTED_EDGE('',*,*,#121,.T.);
#155=ORIENTED_EDGE('',*,*,#117,.T.);
#156=ORIENTED_EDGE('',*,*,#118,.T.);
#157=ORIENTED_EDGE('',*,*,#121,.F.);
#158=ORIENTED_EDGE('',*,*,#120,.F.);
#159=ORIENTED_EDGE('',*,*,#122,.F.);
#160=ORIENTED_EDGE('',*,*,#123,.T.);
#161=ORIENTED_EDGE('',*,*,#124,.T.);
#162=ORIENTED_EDGE('',*,*,#125,.T.);
#163=ORIENTED_EDGE('',*,*,#126,.T.);
#164=ORIENTED_EDGE('',*,*,#124,.F.);
#165=ORIENTED_EDGE('',*,*,#126,.F.);
#166=ORIENTED_EDGE('',*,*,#127,.T.);
#167=ORIENTED_EDGE('',*,*,#122,.T.);
#168=ORIENTED_EDGE('',*,*,#127,.F.);
#169=ORIENTED_EDGE('',*,*,#125,.F.);
#170=ORIENTED_EDGE('',*,*,#123,.F.);
#171=ORIENTED_EDGE('',*,*,#128,.F.);
#172=ORIENTED_EDGE('',*,*,#111,.T.);
#173=ORIENTED_EDGE('',*,*,#129,.F.);
#174=ORIENTED_EDGE('',*,*,#130,.T.);
#175=ORIENTED_EDGE('',*,*,#128,.T.);
#176=ORIENTED_EDGE('',*,*,#130,.F.);
#177=ORIENTED_EDGE('',*,*,#131,.F.);
#178=ORIENTED_EDGE('',*,*,#129,.T.);
#179=ORIENTED_EDGE('',*,*,#132,.T.);
#180=ORIENTED_EDGE('',*,*,#133,.F.);
#181=ORIENTED_EDGE('',*,*,#132,.F.);
#182=ORIENTED_EDGE('',*,*,#131,.T.);
#183=ORIENTED_EDGE('',*,*,#134,.F.);
#184=ORIENTED_EDGE('',*,*,#133,.T.);
#185=ORIENTED_EDGE('',*,*,#115,.F.);
#186=ORIENTED_EDGE('',*,*,#116,.F.);
#187=ORIENTED_EDGE('',*,*,#135,.T.);
#188=ORIENTED_EDGE('',*,*,#134,.T.);
#189=ORIENTED_EDGE('',*,*,#135,.F.);
#190=CYLINDRICAL_SURFACE('',#244,2.25);
#191=CYLINDRICAL_SURFACE('',#253,9.);
#192=CYLINDRICAL_SURFACE('',#265,8.2);
#193=CYLINDRICAL_SURFACE('',#269,6.74999999999999);
#194=CYLINDRICAL_SURFACE('',#277,8.54999999999999);
#195=STYLED_ITEM('',(#434),#210);
#196=STYLED_ITEM('',(#434),#211);
#197=STYLED_ITEM('',(#435),#212);
#198=STYLED_ITEM('',(#435),#213);
#199=STYLED_ITEM('',(#435),#214);
#200=STYLED_ITEM('',(#435),#215);
#201=STYLED_ITEM('',(#434),#216);
#202=STYLED_ITEM('',(#434),#217);
#203=STYLED_ITEM('',(#434),#218);
#204=STYLED_ITEM('',(#434),#219);
#205=STYLED_ITEM('',(#434),#220);
#206=STYLED_ITEM('',(#434),#221);
#207=STYLED_ITEM('',(#434),#222);
#208=STYLED_ITEM('',(#434),#223);
#209=STYLED_ITEM('',(#434),#13);
#210=ADVANCED_FACE('',(#26),#190,.T.);
#211=ADVANCED_FACE('',(#27),#21,.T.);
#212=ADVANCED_FACE('',(#28),#19,.T.);
#213=ADVANCED_FACE('',(#29),#191,.T.);
#214=ADVANCED_FACE('',(#30),#20,.T.);
#215=ADVANCED_FACE('',(#31,#16),#22,.T.);
#216=ADVANCED_FACE('',(#32),#14,.T.);
#217=ADVANCED_FACE('',(#33),#192,.T.);
#218=ADVANCED_FACE('',(#34),#23,.T.);
#219=ADVANCED_FACE('',(#35,#17),#24,.T.);
#220=ADVANCED_FACE('',(#36),#193,.T.);
#221=ADVANCED_FACE('',(#37),#15,.F.);
#222=ADVANCED_FACE('',(#38,#18),#25,.T.);
#223=ADVANCED_FACE('',(#39),#194,.T.);
#224=CLOSED_SHELL('',(#210,#211,#212,#213,#214,#215,#216,#217,#218,#219,
#220,#221,#222,#223));
#225=DERIVED_UNIT_ELEMENT(#227,1.);
#226=DERIVED_UNIT_ELEMENT(#420,3.);
#227=(
MASS_UNIT()
NAMED_UNIT(*)
SI_UNIT($,.GRAM.)
);
#228=DERIVED_UNIT((#225,#226));
#229=MEASURE_REPRESENTATION_ITEM('density measure',
POSITIVE_RATIO_MEASURE(1.),#228);
#230=PROPERTY_DEFINITION_REPRESENTATION(#235,#232);
#231=PROPERTY_DEFINITION_REPRESENTATION(#236,#233);
#232=REPRESENTATION('material name',(#234),#417);
#233=REPRESENTATION('density',(#229),#417);
#234=DESCRIPTIVE_REPRESENTATION_ITEM('Allgemein','Allgemein');
#235=PROPERTY_DEFINITION('material property','material name',#427);
#236=PROPERTY_DEFINITION('material property','density of part',#427);
#237=DATE_TIME_ROLE('creation_date');
#238=APPLIED_DATE_AND_TIME_ASSIGNMENT(#239,#237,(#427));
#239=DATE_AND_TIME(#240,#241);
#240=CALENDAR_DATE(2022,18,3);
#241=LOCAL_TIME(0,0,0.,#242);
#242=COORDINATED_UNIVERSAL_TIME_OFFSET(0,0,.BEHIND.);
#243=AXIS2_PLACEMENT_3D('placement',#355,#278,#279);
#244=AXIS2_PLACEMENT_3D('',#356,#280,#281);
#245=AXIS2_PLACEMENT_3D('',#358,#282,#283);
#246=AXIS2_PLACEMENT_3D('',#361,#285,#286);
#247=AXIS2_PLACEMENT_3D('',#362,#287,#288);
#248=AXIS2_PLACEMENT_3D('',#363,#289,#290);
#249=AXIS2_PLACEMENT_3D('',#366,#291,#292);
#250=AXIS2_PLACEMENT_3D('',#367,#293,#294);
#251=AXIS2_PLACEMENT_3D('',#371,#296,#297);
#252=AXIS2_PLACEMENT_3D('',#372,#298,#299);
#253=AXIS2_PLACEMENT_3D('',#373,#300,#301);
#254=AXIS2_PLACEMENT_3D('',#376,#302,#303);
#255=AXIS2_PLACEMENT_3D('',#377,#304,#305);
#256=AXIS2_PLACEMENT_3D('',#379,#307,#308);
#257=AXIS2_PLACEMENT_3D('',#381,#309,#310);
#258=AXIS2_PLACEMENT_3D('',#383,#312,#313);
#259=AXIS2_PLACEMENT_3D('',#385,#314,#315);
#260=AXIS2_PLACEMENT_3D('',#386,#316,#317);
#261=AXIS2_PLACEMENT_3D('',#388,#318,#319);
#262=AXIS2_PLACEMENT_3D('',#390,#320,#321);
#263=AXIS2_PLACEMENT_3D('',#392,#322,#323);
#264=AXIS2_PLACEMENT_3D('',#393,#324,#325);
#265=AXIS2_PLACEMENT_3D('',#394,#326,#327);
#266=AXIS2_PLACEMENT_3D('',#396,#329,#330);
#267=AXIS2_PLACEMENT_3D('',#397,#331,#332);
#268=AXIS2_PLACEMENT_3D('',#399,#333,#334);
#269=AXIS2_PLACEMENT_3D('',#400,#335,#336);
#270=AXIS2_PLACEMENT_3D('',#403,#337,#338);
#271=AXIS2_PLACEMENT_3D('',#405,#340,#341);
#272=AXIS2_PLACEMENT_3D('',#406,#342,#343);
#273=AXIS2_PLACEMENT_3D('',#408,#344,#345);
#274=AXIS2_PLACEMENT_3D('',#409,#346,#347);
#275=AXIS2_PLACEMENT_3D('',#410,#348,#349);
#276=AXIS2_PLACEMENT_3D('',#412,#350,#351);
#277=AXIS2_PLACEMENT_3D('',#413,#352,#353);
#278=DIRECTION('axis',(0.,0.,1.));
#279=DIRECTION('refdir',(1.,0.,0.));
#280=DIRECTION('center_axis',(-3.14563190310461E-16,1.,0.));
#281=DIRECTION('ref_axis',(1.,3.14563190310461E-16,0.));
#282=DIRECTION('center_axis',(-3.0784359359016E-16,1.,0.));
#283=DIRECTION('ref_axis',(1.,3.0784359359016E-16,0.));
#284=DIRECTION('',(3.14563190310461E-16,-1.,0.));
#285=DIRECTION('center_axis',(3.0784359359016E-16,-1.,0.));
#286=DIRECTION('ref_axis',(1.,3.14563190310461E-16,0.));
#287=DIRECTION('center_axis',(-3.0784359359016E-16,1.,0.));
#288=DIRECTION('ref_axis',(0.,0.,1.));
#289=DIRECTION('center_axis',(3.07843593590159E-16,-1.,0.));
#290=DIRECTION('ref_axis',(-1.,-1.49975084056744E-16,0.));
#291=DIRECTION('center_axis',(-3.0784359359016E-16,1.,0.));
#292=DIRECTION('ref_axis',(-1.,0.,0.));
#293=DIRECTION('center_axis',(-3.0784359359016E-16,1.,0.));
#294=DIRECTION('ref_axis',(-1.,0.,0.));
#295=DIRECTION('',(-0.707106781186556,0.707106781186539,-8.65956056235503E-17));
#296=DIRECTION('center_axis',(3.0784359359016E-16,-1.,0.));
#297=DIRECTION('ref_axis',(1.,3.0784359359016E-16,0.));
#298=DIRECTION('center_axis',(3.0784359359016E-16,-1.,0.));
#299=DIRECTION('ref_axis',(1.,3.0784359359016E-16,0.));
#300=DIRECTION('center_axis',(3.0784359359016E-16,-1.,0.));
#301=DIRECTION('ref_axis',(1.,0.,0.));
#302=DIRECTION('center_axis',(3.0784359359016E-16,-1.,0.));
#303=DIRECTION('ref_axis',(-1.,0.,0.));
#304=DIRECTION('center_axis',(3.0784359359016E-16,-1.,0.));
#305=DIRECTION('ref_axis',(-1.,0.,0.));
#306=DIRECTION('',(-3.0784359359016E-16,1.,0.));
#307=DIRECTION('center_axis',(-3.07843593590159E-16,1.,0.));
#308=DIRECTION('ref_axis',(-1.,-1.49975084056744E-16,0.));
#309=DIRECTION('center_axis',(-3.0784359359016E-16,1.,0.));
#310=DIRECTION('ref_axis',(-1.,-3.0784359359016E-16,0.));
#311=DIRECTION('',(0.707106781186545,0.70710678118655,8.65956056235491E-17));
#312=DIRECTION('center_axis',(3.0784359359016E-16,-1.,0.));
#313=DIRECTION('ref_axis',(0.,0.,-1.));
#314=DIRECTION('center_axis',(3.0784359359016E-16,-1.,0.));
#315=DIRECTION('ref_axis',(1.,3.0784359359016E-16,0.));
#316=DIRECTION('center_axis',(3.0784359359016E-16,-1.,0.));
#317=DIRECTION('ref_axis',(0.,0.,-1.));
#318=DIRECTION('center_axis',(-3.0784359359016E-16,1.,0.));
#319=DIRECTION('ref_axis',(-1.,-3.0784359359016E-16,1.22464679914735E-16));
#320=DIRECTION('center_axis',(-1.,-3.0784359359016E-16,-1.22464679914735E-16));
#321=DIRECTION('ref_axis',(-1.22464679914735E-16,0.,1.));
#322=DIRECTION('center_axis',(3.0784359359016E-16,-1.,0.));
#323=DIRECTION('ref_axis',(-1.,-3.08865399381236E-16,1.22464679914735E-16));
#324=DIRECTION('center_axis',(3.0784359359016E-16,-1.,0.));
#325=DIRECTION('ref_axis',(-1.,-3.08865399381236E-16,1.22464679914735E-16));
#326=DIRECTION('center_axis',(3.0784359359016E-16,-1.,0.));
#327=DIRECTION('ref_axis',(1.,0.,0.));
#328=DIRECTION('',(-3.0784359359016E-16,1.,0.));
#329=DIRECTION('center_axis',(3.0784359359016E-16,-1.,0.));
#330=DIRECTION('ref_axis',(0.,0.,-1.));
#331=DIRECTION('center_axis',(-3.0784359359016E-16,1.,0.));
#332=DIRECTION('ref_axis',(0.,0.,1.));
#333=DIRECTION('center_axis',(3.0784359359016E-16,-1.,0.));
#334=DIRECTION('ref_axis',(1.,3.0784359359016E-16,0.));
#335=DIRECTION('center_axis',(3.0784359359016E-16,-1.,0.));
#336=DIRECTION('ref_axis',(1.,0.,0.));
#337=DIRECTION('center_axis',(3.0784359359016E-16,-1.,0.));
#338=DIRECTION('ref_axis',(1.,3.0784359359016E-16,0.));
#339=DIRECTION('',(-3.0784359359016E-16,1.,0.));
#340=DIRECTION('center_axis',(3.0784359359016E-16,-1.,0.));
#341=DIRECTION('ref_axis',(1.,3.0784359359016E-16,0.));
#342=DIRECTION('center_axis',(3.0784359359016E-16,-1.,0.));
#343=DIRECTION('ref_axis',(0.,0.,-1.));
#344=DIRECTION('center_axis',(-1.,-3.0784359359016E-16,-1.22464679914735E-16));
#345=DIRECTION('ref_axis',(-1.22464679914735E-16,0.,1.));
#346=DIRECTION('center_axis',(3.0784359359016E-16,-1.,0.));
#347=DIRECTION('ref_axis',(1.,3.0784359359016E-16,0.));
#348=DIRECTION('center_axis',(-3.0784359359016E-16,1.,0.));
#349=DIRECTION('ref_axis',(0.,0.,1.));
#350=DIRECTION('center_axis',(3.0784359359016E-16,-1.,0.));
#351=DIRECTION('ref_axis',(1.,3.0784359359016E-16,0.));
#352=DIRECTION('center_axis',(3.0784359359016E-16,-1.,0.));
#353=DIRECTION('ref_axis',(1.,0.,0.));
#354=DIRECTION('',(-3.0784359359016E-16,1.,0.));
#355=CARTESIAN_POINT('',(0.,0.,0.));
#356=CARTESIAN_POINT('Origin',(-1.72084568816899E-14,55.9,2.5));
#357=CARTESIAN_POINT('',(-2.25000000000002,70.9,2.5));
#358=CARTESIAN_POINT('Origin',(-2.19269047363468E-14,70.9,2.5));
#359=CARTESIAN_POINT('',(-2.25000000000002,55.9,2.5));
#360=CARTESIAN_POINT('',(-2.25000000000002,55.9,2.5));
#361=CARTESIAN_POINT('Origin',(-1.72084568816899E-14,55.9,2.5));
#362=CARTESIAN_POINT('Origin',(-2.19269047363468E-14,70.9,2.5));
#363=CARTESIAN_POINT('Origin',(-1.43993840901797E-14,46.775,0.));
#364=CARTESIAN_POINT('',(8.99999999999998,46.55,-1.10218211923262E-15));
#365=CARTESIAN_POINT('',(-9.00000000000001,46.55,-1.10218211923262E-15));
#366=CARTESIAN_POINT('Origin',(-1.43301192816219E-14,46.55,0.));
#367=CARTESIAN_POINT('Origin',(-1.43301192816219E-14,46.55,0.));
#368=CARTESIAN_POINT('',(8.54999999999998,47.,0.));
#369=CARTESIAN_POINT('',(8.77499999999998,46.775,1.0746275662518E-15));
#370=CARTESIAN_POINT('',(-8.55000000000001,47.,-1.04707301327099E-15));
#371=CARTESIAN_POINT('Origin',(-1.44686488987375E-14,47.,0.));
#372=CARTESIAN_POINT('Origin',(-1.44686488987375E-14,47.,0.));
#373=CARTESIAN_POINT('Origin',(-8.77354241731955E-15,28.5,0.));
#374=CARTESIAN_POINT('',(8.99999999999999,10.45,1.10218211923262E-15));
#375=CARTESIAN_POINT('',(-9.,10.45,-1.10218211923262E-15));
#376=CARTESIAN_POINT('Origin',(-3.21696555301717E-15,10.45,0.));
#377=CARTESIAN_POINT('Origin',(-3.21696555301717E-15,10.45,0.));
#378=CARTESIAN_POINT('',(-9.00000000000001,28.5,-1.10218211923262E-15));
#379=CARTESIAN_POINT('Origin',(-3.14770074445938E-15,10.225,0.));
#380=CARTESIAN_POINT('',(8.54999999999999,10.,-1.04707301327099E-15));
#381=CARTESIAN_POINT('Origin',(-3.0784359359016E-15,10.,0.));
#382=CARTESIAN_POINT('',(8.77499999999999,10.225,1.0746275662518E-15));
#383=CARTESIAN_POINT('Origin',(8.2,10.,0.));
#384=CARTESIAN_POINT('',(-8.2,10.,-1.00421037530083E-15));
#385=CARTESIAN_POINT('Origin',(-3.0784359359016E-15,10.,0.));
#386=CARTESIAN_POINT('Origin',(-9.2353078077048E-17,0.3,0.));
#387=CARTESIAN_POINT('',(-9.67470971326409E-16,-1.48914870253642E-31,7.9));
#388=CARTESIAN_POINT('Origin',(-1.38666955995881E-31,0.,0.));
#389=CARTESIAN_POINT('',(-1.09656345337788E-15,0.3,8.2));
#390=CARTESIAN_POINT('Origin',(-1.05982404940346E-15,0.3,7.9));
#391=CARTESIAN_POINT('',(-8.2,0.299999999999999,-1.00421037530083E-15));
#392=CARTESIAN_POINT('Origin',(-9.2353078077048E-17,0.3,0.));
#393=CARTESIAN_POINT('Origin',(-9.2353078077048E-17,0.3,0.));
#394=CARTESIAN_POINT('Origin',(-1.5392179679508E-15,5.,0.));
#395=CARTESIAN_POINT('',(-8.2,5.,-1.00421037530083E-15));
#396=CARTESIAN_POINT('Origin',(0.,0.,0.));
#397=CARTESIAN_POINT('Origin',(6.74999999999997,55.9,0.));
#398=CARTESIAN_POINT('',(-6.75000000000001,55.9,-8.26636589424462E-16));
#399=CARTESIAN_POINT('Origin',(-1.72084568816899E-14,55.9,0.));
#400=CARTESIAN_POINT('Origin',(-1.66851227725867E-14,54.2,0.));
#401=CARTESIAN_POINT('',(-6.75000000000001,52.5,-8.26636589424462E-16));
#402=CARTESIAN_POINT('',(-1.69884252529078E-14,52.5,6.74999999999999));
#403=CARTESIAN_POINT('Origin',(-1.61617886634834E-14,52.5,0.));
#404=CARTESIAN_POINT('',(-6.75000000000001,54.2,-8.26636589424462E-16));
#405=CARTESIAN_POINT('Origin',(-1.61617886634834E-14,52.5,0.));
#406=CARTESIAN_POINT('Origin',(-1.61617886634834E-14,52.5,0.));
#407=CARTESIAN_POINT('',(-1.67103568823947E-14,51.,8.24999999999999));
#408=CARTESIAN_POINT('Origin',(-1.71721222727799E-14,52.5,8.24999999999999));
#409=CARTESIAN_POINT('Origin',(-1.57000232730981E-14,51.,0.));
#410=CARTESIAN_POINT('Origin',(8.54999999999998,51.,0.));
#411=CARTESIAN_POINT('',(-8.55000000000001,51.,-1.04707301327099E-15));
#412=CARTESIAN_POINT('Origin',(-1.57000232730981E-14,51.,0.));
#413=CARTESIAN_POINT('Origin',(-1.50843360859178E-14,49.,0.));
#414=CARTESIAN_POINT('',(-8.55000000000001,49.,-1.04707301327099E-15));
#415=UNCERTAINTY_MEASURE_WITH_UNIT(LENGTH_MEASURE(0.01),#419,
'DISTANCE_ACCURACY_VALUE',
'Maximum model space distance between geometric entities at asserted c
onnectivities');
#416=UNCERTAINTY_MEASURE_WITH_UNIT(LENGTH_MEASURE(0.01),#419,
'DISTANCE_ACCURACY_VALUE',
'Maximum model space distance between geometric entities at asserted c
onnectivities');
#417=(
GEOMETRIC_REPRESENTATION_CONTEXT(3)
GLOBAL_UNCERTAINTY_ASSIGNED_CONTEXT((#415))
GLOBAL_UNIT_ASSIGNED_CONTEXT((#419,#421,#422))
REPRESENTATION_CONTEXT('','3D')
);
#418=(
GEOMETRIC_REPRESENTATION_CONTEXT(3)
GLOBAL_UNCERTAINTY_ASSIGNED_CONTEXT((#416))
GLOBAL_UNIT_ASSIGNED_CONTEXT((#419,#421,#422))
REPRESENTATION_CONTEXT('','3D')
);
#419=(
LENGTH_UNIT()
NAMED_UNIT(*)
SI_UNIT(.MILLI.,.METRE.)
);
#420=(
LENGTH_UNIT()
NAMED_UNIT(*)
SI_UNIT(.CENTI.,.METRE.)
);
#421=(
NAMED_UNIT(*)
PLANE_ANGLE_UNIT()
SI_UNIT($,.RADIAN.)
);
#422=(
NAMED_UNIT(*)
SI_UNIT($,.STERADIAN.)
SOLID_ANGLE_UNIT()
);
#423=SHAPE_DEFINITION_REPRESENTATION(#424,#425);
#424=PRODUCT_DEFINITION_SHAPE('',$,#427);
#425=SHAPE_REPRESENTATION('',(#243),#417);
#426=PRODUCT_DEFINITION_CONTEXT('part definition',#431,'design');
#427=PRODUCT_DEFINITION('IA0253_Shrinkwrap_1','IA0253_Shrinkwrap_1',#428,
#426);
#428=PRODUCT_DEFINITION_FORMATION('',$,#433);
#429=PRODUCT_RELATED_PRODUCT_CATEGORY('IA0253_Shrinkwrap_1',
'IA0253_Shrinkwrap_1',(#433));
#430=APPLICATION_PROTOCOL_DEFINITION('international standard',
'automotive_design',2009,#431);
#431=APPLICATION_CONTEXT(
'Core Data for Automotive Mechanical Design Process');
#432=PRODUCT_CONTEXT('part definition',#431,'mechanical');
#433=PRODUCT('IA0253_Shrinkwrap_1','IA0253_Shrinkwrap_1',$,(#432));
#434=PRESENTATION_STYLE_ASSIGNMENT((#436));
#435=PRESENTATION_STYLE_ASSIGNMENT((#437));
#436=SURFACE_STYLE_USAGE(.BOTH.,#442);
#437=SURFACE_STYLE_USAGE(.BOTH.,#443);
#438=SURFACE_STYLE_RENDERING_WITH_PROPERTIES($,#450,(#440));
#439=SURFACE_STYLE_RENDERING_WITH_PROPERTIES($,#451,(#441));
#440=SURFACE_STYLE_TRANSPARENT(0.);
#441=SURFACE_STYLE_TRANSPARENT(0.);
#442=SURFACE_SIDE_STYLE('',(#444,#438));
#443=SURFACE_SIDE_STYLE('',(#445,#439));
#444=SURFACE_STYLE_FILL_AREA(#446);
#445=SURFACE_STYLE_FILL_AREA(#447);
#446=FILL_AREA_STYLE('',(#448));
#447=FILL_AREA_STYLE('',(#449));
#448=FILL_AREA_STYLE_COLOUR('',#450);
#449=FILL_AREA_STYLE_COLOUR('',#451);
#450=COLOUR_RGB('',0.749019607843137,0.749019607843137,0.749019607843137);
#451=COLOUR_RGB('',0.698039215686274,0.698039215686274,0.698039215686274);
ENDSEC;
END-ISO-10303-21;
