ISO-10303-21;
HEADER;
/* Generated by software containing ST-Developer
 * from STEP Tools, Inc. (www.steptools.com) 
 */

FILE_DESCRIPTION(
/* description */ (''),
/* implementation_level */ '2;1');

FILE_NAME(
/* name */ 
'E:\\Allgemein\\Inventor Pojekte\\Ger\X\E4te\\IA0248_P_F_Shrinkwrap_1.
stp',
/* time_stamp */ '2022-03-18T10:32:56+01:00',
/* author */ ('Krieger Anja'),
/* organization */ (''),
/* preprocessor_version */ 'ST-DEVELOPER v18.1',
/* originating_system */ 'Autodesk Inventor 2021',
/* authorisation */ '');

FILE_SCHEMA (('AUTOMOTIVE_DESIGN { 1 0 10303 214 3 1 1 }'));
ENDSEC;

DATA;
#10=MECHANICAL_DESIGN_GEOMETRIC_PRESENTATION_REPRESENTATION('',(#126,#127,
#128,#129,#130,#131,#132,#133,#134,#135,#136),#279);
#11=SHAPE_REPRESENTATION_RELATIONSHIP('SRR','None',#286,#12);
#12=ADVANCED_BREP_SHAPE_REPRESENTATION('',(#13),#278);
#13=MANIFOLD_SOLID_BREP('Volumenk\X\F6rper1',#147);
#14=FACE_BOUND('',#44,.T.);
#15=FACE_BOUND('',#49,.T.);
#16=LINE('',#249,#20);
#17=LINE('',#256,#21);
#18=LINE('',#267,#22);
#19=LINE('',#274,#23);
#20=VECTOR('',#203,5.5);
#21=VECTOR('',#212,6.);
#22=VECTOR('',#227,5.5);
#23=VECTOR('',#236,1.);
#24=CYLINDRICAL_SURFACE('',#172,5.5);
#25=CYLINDRICAL_SURFACE('',#176,6.);
#26=CYLINDRICAL_SURFACE('',#182,5.5);
#27=CYLINDRICAL_SURFACE('',#186,1.);
#28=TOROIDAL_SURFACE('',#169,5.,0.5);
#29=TOROIDAL_SURFACE('',#178,5.5,0.5);
#30=FACE_OUTER_BOUND('',#40,.T.);
#31=FACE_OUTER_BOUND('',#41,.T.);
#32=FACE_OUTER_BOUND('',#42,.T.);
#33=FACE_OUTER_BOUND('',#43,.T.);
#34=FACE_OUTER_BOUND('',#45,.T.);
#35=FACE_OUTER_BOUND('',#46,.T.);
#36=FACE_OUTER_BOUND('',#47,.T.);
#37=FACE_OUTER_BOUND('',#48,.T.);
#38=FACE_OUTER_BOUND('',#50,.T.);
#39=FACE_OUTER_BOUND('',#51,.T.);
#40=EDGE_LOOP('',(#90));
#41=EDGE_LOOP('',(#91,#92,#93,#94));
#42=EDGE_LOOP('',(#95,#96,#97,#98));
#43=EDGE_LOOP('',(#99));
#44=EDGE_LOOP('',(#100));
#45=EDGE_LOOP('',(#101,#102,#103,#104));
#46=EDGE_LOOP('',(#105,#106,#107,#108,#109));
#47=EDGE_LOOP('',(#110,#111,#112,#113,#114));
#48=EDGE_LOOP('',(#115));
#49=EDGE_LOOP('',(#116));
#50=EDGE_LOOP('',(#117,#118,#119,#120));
#51=EDGE_LOOP('',(#121));
#52=CIRCLE('',#168,4.999999008306);
#53=CIRCLE('',#170,0.5);
#54=CIRCLE('',#171,5.5);
#55=CIRCLE('',#173,5.5);
#56=CIRCLE('',#175,6.);
#57=CIRCLE('',#177,6.);
#58=CIRCLE('',#179,0.5);
#59=CIRCLE('',#180,5.5);
#60=CIRCLE('',#181,5.5);
#61=CIRCLE('',#183,5.5);
#62=CIRCLE('',#185,1.);
#63=CIRCLE('',#187,1.);
#64=VERTEX_POINT('',#241);
#65=VERTEX_POINT('',#244);
#66=VERTEX_POINT('',#248);
#67=VERTEX_POINT('',#252);
#68=VERTEX_POINT('',#255);
#69=VERTEX_POINT('',#259);
#70=VERTEX_POINT('',#261);
#71=VERTEX_POINT('',#265);
#72=VERTEX_POINT('',#269);
#73=VERTEX_POINT('',#272);
#74=EDGE_CURVE('',#64,#64,#52,.T.);
#75=EDGE_CURVE('',#64,#65,#53,.T.);
#76=EDGE_CURVE('',#65,#65,#54,.T.);
#77=EDGE_CURVE('',#65,#66,#16,.T.);
#78=EDGE_CURVE('',#66,#66,#55,.T.);
#79=EDGE_CURVE('',#67,#67,#56,.T.);
#80=EDGE_CURVE('',#67,#68,#17,.T.);
#81=EDGE_CURVE('',#68,#68,#57,.T.);
#82=EDGE_CURVE('',#68,#69,#58,.T.);
#83=EDGE_CURVE('',#70,#69,#59,.T.);
#84=EDGE_CURVE('',#69,#70,#60,.T.);
#85=EDGE_CURVE('',#71,#71,#61,.T.);
#86=EDGE_CURVE('',#71,#70,#18,.T.);
#87=EDGE_CURVE('',#72,#72,#62,.T.);
#88=EDGE_CURVE('',#73,#73,#63,.T.);
#89=EDGE_CURVE('',#73,#72,#19,.T.);
#90=ORIENTED_EDGE('',*,*,#74,.T.);
#91=ORIENTED_EDGE('',*,*,#74,.F.);
#92=ORIENTED_EDGE('',*,*,#75,.T.);
#93=ORIENTED_EDGE('',*,*,#76,.T.);
#94=ORIENTED_EDGE('',*,*,#75,.F.);
#95=ORIENTED_EDGE('',*,*,#76,.F.);
#96=ORIENTED_EDGE('',*,*,#77,.T.);
#97=ORIENTED_EDGE('',*,*,#78,.F.);
#98=ORIENTED_EDGE('',*,*,#77,.F.);
#99=ORIENTED_EDGE('',*,*,#79,.T.);
#100=ORIENTED_EDGE('',*,*,#78,.T.);
#101=ORIENTED_EDGE('',*,*,#79,.F.);
#102=ORIENTED_EDGE('',*,*,#80,.T.);
#103=ORIENTED_EDGE('',*,*,#81,.F.);
#104=ORIENTED_EDGE('',*,*,#80,.F.);
#105=ORIENTED_EDGE('',*,*,#81,.T.);
#106=ORIENTED_EDGE('',*,*,#82,.T.);
#107=ORIENTED_EDGE('',*,*,#83,.F.);
#108=ORIENTED_EDGE('',*,*,#84,.F.);
#109=ORIENTED_EDGE('',*,*,#82,.F.);
#110=ORIENTED_EDGE('',*,*,#85,.F.);
#111=ORIENTED_EDGE('',*,*,#86,.T.);
#112=ORIENTED_EDGE('',*,*,#83,.T.);
#113=ORIENTED_EDGE('',*,*,#84,.T.);
#114=ORIENTED_EDGE('',*,*,#86,.F.);
#115=ORIENTED_EDGE('',*,*,#85,.T.);
#116=ORIENTED_EDGE('',*,*,#87,.F.);
#117=ORIENTED_EDGE('',*,*,#88,.F.);
#118=ORIENTED_EDGE('',*,*,#89,.T.);
#119=ORIENTED_EDGE('',*,*,#87,.T.);
#120=ORIENTED_EDGE('',*,*,#89,.F.);
#121=ORIENTED_EDGE('',*,*,#88,.T.);
#122=PLANE('',#167);
#123=PLANE('',#174);
#124=PLANE('',#184);
#125=PLANE('',#188);
#126=STYLED_ITEM('',(#296),#137);
#127=STYLED_ITEM('',(#296),#138);
#128=STYLED_ITEM('',(#296),#139);
#129=STYLED_ITEM('',(#297),#140);
#130=STYLED_ITEM('',(#297),#141);
#131=STYLED_ITEM('',(#297),#142);
#132=STYLED_ITEM('',(#298),#143);
#133=STYLED_ITEM('',(#298),#144);
#134=STYLED_ITEM('',(#299),#145);
#135=STYLED_ITEM('',(#299),#146);
#136=STYLED_ITEM('',(#295),#13);
#137=ADVANCED_FACE('',(#30),#122,.T.);
#138=ADVANCED_FACE('',(#31),#28,.T.);
#139=ADVANCED_FACE('',(#32),#24,.T.);
#140=ADVANCED_FACE('',(#33,#14),#123,.T.);
#141=ADVANCED_FACE('',(#34),#25,.T.);
#142=ADVANCED_FACE('',(#35),#29,.T.);
#143=ADVANCED_FACE('',(#36),#26,.T.);
#144=ADVANCED_FACE('',(#37,#15),#124,.T.);
#145=ADVANCED_FACE('',(#38),#27,.T.);
#146=ADVANCED_FACE('',(#39),#125,.T.);
#147=CLOSED_SHELL('',(#137,#138,#139,#140,#141,#142,#143,#144,#145,#146));
#148=DERIVED_UNIT_ELEMENT(#150,1.);
#149=DERIVED_UNIT_ELEMENT(#281,3.);
#150=(
MASS_UNIT()
NAMED_UNIT(*)
SI_UNIT($,.GRAM.)
);
#151=DERIVED_UNIT((#148,#149));
#152=MEASURE_REPRESENTATION_ITEM('density measure',
POSITIVE_RATIO_MEASURE(1.),#151);
#153=PROPERTY_DEFINITION_REPRESENTATION(#158,#155);
#154=PROPERTY_DEFINITION_REPRESENTATION(#159,#156);
#155=REPRESENTATION('material name',(#157),#278);
#156=REPRESENTATION('density',(#152),#278);
#157=DESCRIPTIVE_REPRESENTATION_ITEM('Allgemein','Allgemein');
#158=PROPERTY_DEFINITION('material property','material name',#288);
#159=PROPERTY_DEFINITION('material property','density of part',#288);
#160=DATE_TIME_ROLE('creation_date');
#161=APPLIED_DATE_AND_TIME_ASSIGNMENT(#162,#160,(#288));
#162=DATE_AND_TIME(#163,#164);
#163=CALENDAR_DATE(2022,18,3);
#164=LOCAL_TIME(0,0,0.,#165);
#165=COORDINATED_UNIVERSAL_TIME_OFFSET(0,0,.BEHIND.);
#166=AXIS2_PLACEMENT_3D('placement',#239,#189,#190);
#167=AXIS2_PLACEMENT_3D('',#240,#191,#192);
#168=AXIS2_PLACEMENT_3D('',#242,#193,#194);
#169=AXIS2_PLACEMENT_3D('',#243,#195,#196);
#170=AXIS2_PLACEMENT_3D('',#245,#197,#198);
#171=AXIS2_PLACEMENT_3D('',#246,#199,#200);
#172=AXIS2_PLACEMENT_3D('',#247,#201,#202);
#173=AXIS2_PLACEMENT_3D('',#250,#204,#205);
#174=AXIS2_PLACEMENT_3D('',#251,#206,#207);
#175=AXIS2_PLACEMENT_3D('',#253,#208,#209);
#176=AXIS2_PLACEMENT_3D('',#254,#210,#211);
#177=AXIS2_PLACEMENT_3D('',#257,#213,#214);
#178=AXIS2_PLACEMENT_3D('',#258,#215,#216);
#179=AXIS2_PLACEMENT_3D('',#260,#217,#218);
#180=AXIS2_PLACEMENT_3D('',#262,#219,#220);
#181=AXIS2_PLACEMENT_3D('',#263,#221,#222);
#182=AXIS2_PLACEMENT_3D('',#264,#223,#224);
#183=AXIS2_PLACEMENT_3D('',#266,#225,#226);
#184=AXIS2_PLACEMENT_3D('',#268,#228,#229);
#185=AXIS2_PLACEMENT_3D('',#270,#230,#231);
#186=AXIS2_PLACEMENT_3D('',#271,#232,#233);
#187=AXIS2_PLACEMENT_3D('',#273,#234,#235);
#188=AXIS2_PLACEMENT_3D('',#275,#237,#238);
#189=DIRECTION('axis',(0.,0.,1.));
#190=DIRECTION('refdir',(1.,0.,0.));
#191=DIRECTION('center_axis',(0.,0.,1.));
#192=DIRECTION('ref_axis',(1.,0.,0.));
#193=DIRECTION('center_axis',(0.,0.,1.));
#194=DIRECTION('ref_axis',(1.,0.,0.));
#195=DIRECTION('center_axis',(0.,0.,1.));
#196=DIRECTION('ref_axis',(1.,0.,0.));
#197=DIRECTION('center_axis',(1.22464679914735E-16,-1.,0.));
#198=DIRECTION('ref_axis',(-1.,-1.22464679914735E-16,0.));
#199=DIRECTION('center_axis',(0.,0.,1.));
#200=DIRECTION('ref_axis',(1.,0.,0.));
#201=DIRECTION('center_axis',(0.,0.,1.));
#202=DIRECTION('ref_axis',(1.,0.,0.));
#203=DIRECTION('',(0.,0.,-1.));
#204=DIRECTION('center_axis',(0.,0.,-1.));
#205=DIRECTION('ref_axis',(1.,0.,0.));
#206=DIRECTION('center_axis',(0.,0.,1.));
#207=DIRECTION('ref_axis',(1.,0.,0.));
#208=DIRECTION('center_axis',(0.,0.,1.));
#209=DIRECTION('ref_axis',(1.,0.,0.));
#210=DIRECTION('center_axis',(0.,0.,1.));
#211=DIRECTION('ref_axis',(1.,0.,0.));
#212=DIRECTION('',(0.,0.,-1.));
#213=DIRECTION('center_axis',(0.,0.,-1.));
#214=DIRECTION('ref_axis',(-1.,0.,0.));
#215=DIRECTION('center_axis',(0.,0.,1.));
#216=DIRECTION('ref_axis',(1.,0.,0.));
#217=DIRECTION('center_axis',(1.22464679914735E-16,-1.,0.));
#218=DIRECTION('ref_axis',(-1.,-1.22464679914735E-16,0.));
#219=DIRECTION('center_axis',(0.,0.,-1.));
#220=DIRECTION('ref_axis',(0.,1.,0.));
#221=DIRECTION('center_axis',(0.,0.,-1.));
#222=DIRECTION('ref_axis',(0.,1.,0.));
#223=DIRECTION('center_axis',(0.,0.,-1.));
#224=DIRECTION('ref_axis',(0.,-1.,0.));
#225=DIRECTION('center_axis',(0.,0.,-1.));
#226=DIRECTION('ref_axis',(0.,1.,0.));
#227=DIRECTION('',(0.,0.,1.));
#228=DIRECTION('center_axis',(0.,0.,-1.));
#229=DIRECTION('ref_axis',(-1.,0.,0.));
#230=DIRECTION('center_axis',(0.,0.,-1.));
#231=DIRECTION('ref_axis',(1.,0.,0.));
#232=DIRECTION('center_axis',(0.,0.,-1.));
#233=DIRECTION('ref_axis',(1.,0.,0.));
#234=DIRECTION('center_axis',(0.,0.,-1.));
#235=DIRECTION('ref_axis',(1.,0.,0.));
#236=DIRECTION('',(0.,0.,1.));
#237=DIRECTION('center_axis',(0.,0.,-1.));
#238=DIRECTION('ref_axis',(-1.,0.,0.));
#239=CARTESIAN_POINT('',(0.,0.,0.));
#240=CARTESIAN_POINT('Origin',(0.,0.,0.));
#241=CARTESIAN_POINT('',(-4.999999008306,0.,-9.83435555213E-13));
#242=CARTESIAN_POINT('Origin',(0.,0.,-9.83435555213E-13));
#243=CARTESIAN_POINT('Origin',(0.,0.,-0.5));
#244=CARTESIAN_POINT('',(-5.5,0.,-0.5));
#245=CARTESIAN_POINT('Origin',(-5.,-6.12323399573677E-16,-0.5));
#246=CARTESIAN_POINT('Origin',(0.,0.,-0.5));
#247=CARTESIAN_POINT('Origin',(0.,0.,0.));
#248=CARTESIAN_POINT('',(-5.5,-6.73555739531044E-16,-5.));
#249=CARTESIAN_POINT('',(-5.5,-6.73555739531044E-16,0.));
#250=CARTESIAN_POINT('Origin',(0.,0.,-5.));
#251=CARTESIAN_POINT('Origin',(0.,0.,-5.));
#252=CARTESIAN_POINT('',(-6.,-7.34788079488412E-16,-5.));
#253=CARTESIAN_POINT('Origin',(0.,0.,-5.));
#254=CARTESIAN_POINT('Origin',(0.,0.,0.));
#255=CARTESIAN_POINT('',(-6.,-7.34788079488412E-16,-46.5));
#256=CARTESIAN_POINT('',(-6.,-7.34788079488412E-16,0.));
#257=CARTESIAN_POINT('Origin',(0.,0.,-46.5));
#258=CARTESIAN_POINT('Origin',(0.,0.,-46.5));
#259=CARTESIAN_POINT('',(-5.5,-6.73555739531044E-16,-47.));
#260=CARTESIAN_POINT('Origin',(-5.5,-6.73555739531044E-16,-46.5));
#261=CARTESIAN_POINT('',(0.,5.5,-47.));
#262=CARTESIAN_POINT('Origin',(0.,0.,-47.));
#263=CARTESIAN_POINT('Origin',(0.,0.,-47.));
#264=CARTESIAN_POINT('Origin',(0.,0.,-47.));
#265=CARTESIAN_POINT('',(0.,5.5,-50.));
#266=CARTESIAN_POINT('Origin',(0.,0.,-50.));
#267=CARTESIAN_POINT('',(6.73555739531044E-16,5.5,-47.));
#268=CARTESIAN_POINT('Origin',(0.,0.,-50.));
#269=CARTESIAN_POINT('',(-1.,1.22464679914735E-16,-50.));
#270=CARTESIAN_POINT('Origin',(0.,0.,-50.));
#271=CARTESIAN_POINT('Origin',(0.,0.,-50.));
#272=CARTESIAN_POINT('',(-1.,1.22464679914735E-16,-60.));
#273=CARTESIAN_POINT('Origin',(0.,0.,-60.));
#274=CARTESIAN_POINT('',(-1.,1.22464679914735E-16,-50.));
#275=CARTESIAN_POINT('Origin',(0.,0.,-60.));
#276=UNCERTAINTY_MEASURE_WITH_UNIT(LENGTH_MEASURE(0.01),#280,
'DISTANCE_ACCURACY_VALUE',
'Maximum model space distance between geometric entities at asserted c
onnectivities');
#277=UNCERTAINTY_MEASURE_WITH_UNIT(LENGTH_MEASURE(0.01),#280,
'DISTANCE_ACCURACY_VALUE',
'Maximum model space distance between geometric entities at asserted c
onnectivities');
#278=(
GEOMETRIC_REPRESENTATION_CONTEXT(3)
GLOBAL_UNCERTAINTY_ASSIGNED_CONTEXT((#276))
GLOBAL_UNIT_ASSIGNED_CONTEXT((#280,#282,#283))
REPRESENTATION_CONTEXT('','3D')
);
#279=(
GEOMETRIC_REPRESENTATION_CONTEXT(3)
GLOBAL_UNCERTAINTY_ASSIGNED_CONTEXT((#277))
GLOBAL_UNIT_ASSIGNED_CONTEXT((#280,#282,#283))
REPRESENTATION_CONTEXT('','3D')
);
#280=(
LENGTH_UNIT()
NAMED_UNIT(*)
SI_UNIT(.MILLI.,.METRE.)
);
#281=(
LENGTH_UNIT()
NAMED_UNIT(*)
SI_UNIT(.CENTI.,.METRE.)
);
#282=(
NAMED_UNIT(*)
PLANE_ANGLE_UNIT()
SI_UNIT($,.RADIAN.)
);
#283=(
NAMED_UNIT(*)
SI_UNIT($,.STERADIAN.)
SOLID_ANGLE_UNIT()
);
#284=SHAPE_DEFINITION_REPRESENTATION(#285,#286);
#285=PRODUCT_DEFINITION_SHAPE('',$,#288);
#286=SHAPE_REPRESENTATION('',(#166),#278);
#287=PRODUCT_DEFINITION_CONTEXT('part definition',#292,'design');
#288=PRODUCT_DEFINITION('IA0248_P_F_Shrinkwrap_1',
'IA0248_P_F_Shrinkwrap_1',#289,#287);
#289=PRODUCT_DEFINITION_FORMATION('',$,#294);
#290=PRODUCT_RELATED_PRODUCT_CATEGORY('IA0248_P_F_Shrinkwrap_1',
'IA0248_P_F_Shrinkwrap_1',(#294));
#291=APPLICATION_PROTOCOL_DEFINITION('international standard',
'automotive_design',2009,#292);
#292=APPLICATION_CONTEXT(
'Core Data for Automotive Mechanical Design Process');
#293=PRODUCT_CONTEXT('part definition',#292,'mechanical');
#294=PRODUCT('IA0248_P_F_Shrinkwrap_1','IA0248_P_F_Shrinkwrap_1',$,(#293));
#295=PRESENTATION_STYLE_ASSIGNMENT((#300));
#296=PRESENTATION_STYLE_ASSIGNMENT((#301));
#297=PRESENTATION_STYLE_ASSIGNMENT((#302));
#298=PRESENTATION_STYLE_ASSIGNMENT((#303));
#299=PRESENTATION_STYLE_ASSIGNMENT((#304));
#300=SURFACE_STYLE_USAGE(.BOTH.,#313);
#301=SURFACE_STYLE_USAGE(.BOTH.,#314);
#302=SURFACE_STYLE_USAGE(.BOTH.,#315);
#303=SURFACE_STYLE_USAGE(.BOTH.,#316);
#304=SURFACE_STYLE_USAGE(.BOTH.,#317);
#305=SURFACE_STYLE_RENDERING_WITH_PROPERTIES($,#333,(#309));
#306=SURFACE_STYLE_RENDERING_WITH_PROPERTIES($,#334,(#310));
#307=SURFACE_STYLE_RENDERING_WITH_PROPERTIES($,#335,(#311));
#308=SURFACE_STYLE_RENDERING_WITH_PROPERTIES($,#337,(#312));
#309=SURFACE_STYLE_TRANSPARENT(0.);
#310=SURFACE_STYLE_TRANSPARENT(0.);
#311=SURFACE_STYLE_TRANSPARENT(0.);
#312=SURFACE_STYLE_TRANSPARENT(0.);
#313=SURFACE_SIDE_STYLE('',(#318,#305));
#314=SURFACE_SIDE_STYLE('',(#319,#306));
#315=SURFACE_SIDE_STYLE('',(#320,#307));
#316=SURFACE_SIDE_STYLE('',(#321));
#317=SURFACE_SIDE_STYLE('',(#322,#308));
#318=SURFACE_STYLE_FILL_AREA(#323);
#319=SURFACE_STYLE_FILL_AREA(#324);
#320=SURFACE_STYLE_FILL_AREA(#325);
#321=SURFACE_STYLE_FILL_AREA(#326);
#322=SURFACE_STYLE_FILL_AREA(#327);
#323=FILL_AREA_STYLE('',(#328));
#324=FILL_AREA_STYLE('',(#329));
#325=FILL_AREA_STYLE('',(#330));
#326=FILL_AREA_STYLE('',(#331));
#327=FILL_AREA_STYLE('',(#332));
#328=FILL_AREA_STYLE_COLOUR('',#333);
#329=FILL_AREA_STYLE_COLOUR('',#334);
#330=FILL_AREA_STYLE_COLOUR('',#335);
#331=FILL_AREA_STYLE_COLOUR('',#336);
#332=FILL_AREA_STYLE_COLOUR('',#337);
#333=COLOUR_RGB('',0.749019607843137,0.749019607843137,0.749019607843137);
#334=COLOUR_RGB('',0.23921568627451,0.243137254901961,0.211764705882353);
#335=COLOUR_RGB('',0.419607843137255,0.423529411764706,0.368627450980392);
#336=COLOUR_RGB('',0.76078431372549,0.76078431372549,0.76078431372549);
#337=COLOUR_RGB('',0.,0.,0.);
ENDSEC;
END-ISO-10303-21;
