ISO-10303-21;
HEADER;
/* Generated by software containing ST-Developer
 * from STEP Tools, Inc. (www.steptools.com) 
 */

FILE_DESCRIPTION(
/* description */ (''),
/* implementation_level */ '2;1');

FILE_NAME(
/* name */ 
'E:\\Allgemein\\Inventor Pojekte\\Ger\X\E4te\\IA0185_Shrinkwrap_1.stp',

/* time_stamp */ '2022-03-18T10:27:39+01:00',
/* author */ ('Krieger Anja'),
/* organization */ (''),
/* preprocessor_version */ 'ST-DEVELOPER v18.1',
/* originating_system */ 'Autodesk Inventor 2021',
/* authorisation */ '');

FILE_SCHEMA (('AUTOMOTIVE_DESIGN { 1 0 10303 214 3 1 1 }'));
ENDSEC;

DATA;
#10=MECHANICAL_DESIGN_GEOMETRIC_PRESENTATION_REPRESENTATION('',(#153,#154,
#155,#156,#157,#158,#159,#160,#161,#162,#163,#164,#165),#377);
#11=SHAPE_REPRESENTATION_RELATIONSHIP('SRR','None',#384,#12);
#12=ADVANCED_BREP_SHAPE_REPRESENTATION('',(#13),#376);
#13=MANIFOLD_SOLID_BREP('Volumenk\X\F6rper1',#178);
#14=FACE_BOUND('',#40,.T.);
#15=FACE_BOUND('',#42,.T.);
#16=FACE_BOUND('',#45,.T.);
#17=FACE_BOUND('',#48,.T.);
#18=PLANE('',#205);
#19=PLANE('',#206);
#20=PLANE('',#210);
#21=PLANE('',#214);
#22=PLANE('',#218);
#23=FACE_OUTER_BOUND('',#35,.T.);
#24=FACE_OUTER_BOUND('',#36,.T.);
#25=FACE_OUTER_BOUND('',#37,.T.);
#26=FACE_OUTER_BOUND('',#38,.T.);
#27=FACE_OUTER_BOUND('',#39,.T.);
#28=FACE_OUTER_BOUND('',#41,.T.);
#29=FACE_OUTER_BOUND('',#43,.T.);
#30=FACE_OUTER_BOUND('',#44,.T.);
#31=FACE_OUTER_BOUND('',#46,.T.);
#32=FACE_OUTER_BOUND('',#47,.T.);
#33=FACE_OUTER_BOUND('',#49,.T.);
#34=FACE_OUTER_BOUND('',#50,.T.);
#35=EDGE_LOOP('',(#108,#109,#110,#111,#112,#113,#114));
#36=EDGE_LOOP('',(#115,#116,#117));
#37=EDGE_LOOP('',(#118,#119,#120));
#38=EDGE_LOOP('',(#121,#122,#123,#124));
#39=EDGE_LOOP('',(#125));
#40=EDGE_LOOP('',(#126));
#41=EDGE_LOOP('',(#127));
#42=EDGE_LOOP('',(#128));
#43=EDGE_LOOP('',(#129,#130,#131,#132));
#44=EDGE_LOOP('',(#133));
#45=EDGE_LOOP('',(#134));
#46=EDGE_LOOP('',(#135,#136,#137,#138));
#47=EDGE_LOOP('',(#139));
#48=EDGE_LOOP('',(#140));
#49=EDGE_LOOP('',(#141,#142,#143,#144));
#50=EDGE_LOOP('',(#145));
#51=CIRCLE('',#199,2.45);
#52=CIRCLE('',#203,2.5);
#53=CIRCLE('',#204,2.5);
#54=CIRCLE('',#207,5.20000000000002);
#55=CIRCLE('',#209,5.20000000000002);
#56=CIRCLE('',#211,8.00000000000001);
#57=CIRCLE('',#213,8.);
#58=CIRCLE('',#215,9.00000000000001);
#59=CIRCLE('',#217,9.);
#60=LINE('',#340,#66);
#61=LINE('',#343,#67);
#62=LINE('',#349,#68);
#63=LINE('',#358,#69);
#64=LINE('',#365,#70);
#65=LINE('',#372,#71);
#66=VECTOR('',#223,2.45);
#67=VECTOR('',#228,10.);
#68=VECTOR('',#235,2.5);
#69=VECTOR('',#248,5.20000000000002);
#70=VECTOR('',#257,8.00000000000001);
#71=VECTOR('',#266,9.);
#72=B_SPLINE_CURVE_WITH_KNOTS('',3,(#273,#274,#275,#276,#277,#278,#279,
#280,#281,#282,#283,#284,#285,#286,#287,#288),.UNSPECIFIED.,.F.,.F.,(4,
2,2,2,2,2,2,4),(1.07063114425887,1.10596275692371,1.16130500132713,1.21130115816425,
1.26129731500137,1.36712080385997,1.42003254828928,1.47294429271858),
 .UNSPECIFIED.);
#73=B_SPLINE_CURVE_WITH_KNOTS('',3,(#290,#291,#292,#293,#294,#295,#296,
#297,#298,#299,#300,#301,#302,#303,#304,#305),.UNSPECIFIED.,.F.,.F.,(4,
2,2,2,2,2,2,4),(0.490981430906193,0.543893175335496,0.596804919764799,0.702628408623406,
0.752624565460522,0.802620722297639,0.857962966701061,0.893294579365903),
 .UNSPECIFIED.);
#74=B_SPLINE_CURVE_WITH_KNOTS('',3,(#307,#308,#309,#310,#311,#312,#313,
#314,#315,#316,#317,#318,#319,#320,#321,#322),.UNSPECIFIED.,.F.,.F.,(4,
2,2,2,2,2,2,4),(0.0886682824464827,0.123999895111325,0.179342139514747,
0.229338296351864,0.279334453188981,0.385157942047587,0.43806968647689,
0.490981430906193),.UNSPECIFIED.);
#75=B_SPLINE_CURVE_WITH_KNOTS('',3,(#323,#324,#325,#326,#327,#328,#329,
#330,#331,#332,#333,#334,#335,#336,#337,#338),.UNSPECIFIED.,.F.,.F.,(4,
2,2,2,2,2,2,4),(1.47294429271858,1.52585603714788,1.57876778157719,1.68459127043579,
1.73458742727291,1.78458358411002,1.83992582851345,1.87525744117829),
 .UNSPECIFIED.);
#76=VERTEX_POINT('',#271);
#77=VERTEX_POINT('',#272);
#78=VERTEX_POINT('',#289);
#79=VERTEX_POINT('',#306);
#80=VERTEX_POINT('',#339);
#81=VERTEX_POINT('',#346);
#82=VERTEX_POINT('',#348);
#83=VERTEX_POINT('',#353);
#84=VERTEX_POINT('',#356);
#85=VERTEX_POINT('',#360);
#86=VERTEX_POINT('',#363);
#87=VERTEX_POINT('',#367);
#88=VERTEX_POINT('',#370);
#89=EDGE_CURVE('',#76,#77,#72,.T.);
#90=EDGE_CURVE('',#78,#76,#73,.T.);
#91=EDGE_CURVE('',#79,#78,#74,.T.);
#92=EDGE_CURVE('',#77,#79,#75,.T.);
#93=EDGE_CURVE('',#77,#80,#60,.T.);
#94=EDGE_CURVE('',#80,#80,#51,.T.);
#95=EDGE_CURVE('',#76,#79,#61,.T.);
#96=EDGE_CURVE('',#81,#81,#52,.T.);
#97=EDGE_CURVE('',#81,#82,#62,.T.);
#98=EDGE_CURVE('',#82,#82,#53,.T.);
#99=EDGE_CURVE('',#83,#83,#54,.T.);
#100=EDGE_CURVE('',#84,#84,#55,.T.);
#101=EDGE_CURVE('',#84,#83,#63,.T.);
#102=EDGE_CURVE('',#85,#85,#56,.T.);
#103=EDGE_CURVE('',#86,#86,#57,.T.);
#104=EDGE_CURVE('',#86,#85,#64,.T.);
#105=EDGE_CURVE('',#87,#87,#58,.T.);
#106=EDGE_CURVE('',#88,#88,#59,.T.);
#107=EDGE_CURVE('',#88,#87,#65,.T.);
#108=ORIENTED_EDGE('',*,*,#89,.F.);
#109=ORIENTED_EDGE('',*,*,#90,.F.);
#110=ORIENTED_EDGE('',*,*,#91,.F.);
#111=ORIENTED_EDGE('',*,*,#92,.F.);
#112=ORIENTED_EDGE('',*,*,#93,.T.);
#113=ORIENTED_EDGE('',*,*,#94,.F.);
#114=ORIENTED_EDGE('',*,*,#93,.F.);
#115=ORIENTED_EDGE('',*,*,#89,.T.);
#116=ORIENTED_EDGE('',*,*,#92,.T.);
#117=ORIENTED_EDGE('',*,*,#95,.F.);
#118=ORIENTED_EDGE('',*,*,#90,.T.);
#119=ORIENTED_EDGE('',*,*,#95,.T.);
#120=ORIENTED_EDGE('',*,*,#91,.T.);
#121=ORIENTED_EDGE('',*,*,#96,.T.);
#122=ORIENTED_EDGE('',*,*,#97,.T.);
#123=ORIENTED_EDGE('',*,*,#98,.F.);
#124=ORIENTED_EDGE('',*,*,#97,.F.);
#125=ORIENTED_EDGE('',*,*,#96,.F.);
#126=ORIENTED_EDGE('',*,*,#94,.T.);
#127=ORIENTED_EDGE('',*,*,#99,.F.);
#128=ORIENTED_EDGE('',*,*,#98,.T.);
#129=ORIENTED_EDGE('',*,*,#100,.F.);
#130=ORIENTED_EDGE('',*,*,#101,.T.);
#131=ORIENTED_EDGE('',*,*,#99,.T.);
#132=ORIENTED_EDGE('',*,*,#101,.F.);
#133=ORIENTED_EDGE('',*,*,#102,.F.);
#134=ORIENTED_EDGE('',*,*,#100,.T.);
#135=ORIENTED_EDGE('',*,*,#103,.F.);
#136=ORIENTED_EDGE('',*,*,#104,.T.);
#137=ORIENTED_EDGE('',*,*,#102,.T.);
#138=ORIENTED_EDGE('',*,*,#104,.F.);
#139=ORIENTED_EDGE('',*,*,#105,.F.);
#140=ORIENTED_EDGE('',*,*,#103,.T.);
#141=ORIENTED_EDGE('',*,*,#106,.F.);
#142=ORIENTED_EDGE('',*,*,#107,.T.);
#143=ORIENTED_EDGE('',*,*,#105,.T.);
#144=ORIENTED_EDGE('',*,*,#107,.F.);
#145=ORIENTED_EDGE('',*,*,#106,.T.);
#146=CYLINDRICAL_SURFACE('',#198,2.45);
#147=CYLINDRICAL_SURFACE('',#200,1.5);
#148=CYLINDRICAL_SURFACE('',#201,1.5);
#149=CYLINDRICAL_SURFACE('',#202,2.5);
#150=CYLINDRICAL_SURFACE('',#208,5.20000000000002);
#151=CYLINDRICAL_SURFACE('',#212,8.00000000000001);
#152=CYLINDRICAL_SURFACE('',#216,9.);
#153=STYLED_ITEM('',(#394),#166);
#154=STYLED_ITEM('',(#394),#167);
#155=STYLED_ITEM('',(#394),#168);
#156=STYLED_ITEM('',(#395),#169);
#157=STYLED_ITEM('',(#396),#170);
#158=STYLED_ITEM('',(#395),#171);
#159=STYLED_ITEM('',(#395),#172);
#160=STYLED_ITEM('',(#397),#173);
#161=STYLED_ITEM('',(#397),#174);
#162=STYLED_ITEM('',(#396),#175);
#163=STYLED_ITEM('',(#396),#176);
#164=STYLED_ITEM('',(#398),#177);
#165=STYLED_ITEM('',(#393),#13);
#166=ADVANCED_FACE('',(#23),#146,.T.);
#167=ADVANCED_FACE('',(#24),#147,.T.);
#168=ADVANCED_FACE('',(#25),#148,.F.);
#169=ADVANCED_FACE('',(#26),#149,.T.);
#170=ADVANCED_FACE('',(#27,#14),#18,.F.);
#171=ADVANCED_FACE('',(#28,#15),#19,.T.);
#172=ADVANCED_FACE('',(#29),#150,.T.);
#173=ADVANCED_FACE('',(#30,#16),#20,.T.);
#174=ADVANCED_FACE('',(#31),#151,.T.);
#175=ADVANCED_FACE('',(#32,#17),#21,.T.);
#176=ADVANCED_FACE('',(#33),#152,.T.);
#177=ADVANCED_FACE('',(#34),#22,.T.);
#178=CLOSED_SHELL('',(#166,#167,#168,#169,#170,#171,#172,#173,#174,#175,
#176,#177));
#179=DERIVED_UNIT_ELEMENT(#181,1.);
#180=DERIVED_UNIT_ELEMENT(#379,3.);
#181=(
MASS_UNIT()
NAMED_UNIT(*)
SI_UNIT($,.GRAM.)
);
#182=DERIVED_UNIT((#179,#180));
#183=MEASURE_REPRESENTATION_ITEM('density measure',
POSITIVE_RATIO_MEASURE(1.),#182);
#184=PROPERTY_DEFINITION_REPRESENTATION(#189,#186);
#185=PROPERTY_DEFINITION_REPRESENTATION(#190,#187);
#186=REPRESENTATION('material name',(#188),#376);
#187=REPRESENTATION('density',(#183),#376);
#188=DESCRIPTIVE_REPRESENTATION_ITEM('Allgemein','Allgemein');
#189=PROPERTY_DEFINITION('material property','material name',#386);
#190=PROPERTY_DEFINITION('material property','density of part',#386);
#191=DATE_TIME_ROLE('creation_date');
#192=APPLIED_DATE_AND_TIME_ASSIGNMENT(#193,#191,(#386));
#193=DATE_AND_TIME(#194,#195);
#194=CALENDAR_DATE(2022,18,3);
#195=LOCAL_TIME(0,0,0.,#196);
#196=COORDINATED_UNIVERSAL_TIME_OFFSET(0,0,.BEHIND.);
#197=AXIS2_PLACEMENT_3D('placement',#269,#219,#220);
#198=AXIS2_PLACEMENT_3D('',#270,#221,#222);
#199=AXIS2_PLACEMENT_3D('',#341,#224,#225);
#200=AXIS2_PLACEMENT_3D('',#342,#226,#227);
#201=AXIS2_PLACEMENT_3D('',#344,#229,#230);
#202=AXIS2_PLACEMENT_3D('',#345,#231,#232);
#203=AXIS2_PLACEMENT_3D('',#347,#233,#234);
#204=AXIS2_PLACEMENT_3D('',#350,#236,#237);
#205=AXIS2_PLACEMENT_3D('',#351,#238,#239);
#206=AXIS2_PLACEMENT_3D('',#352,#240,#241);
#207=AXIS2_PLACEMENT_3D('',#354,#242,#243);
#208=AXIS2_PLACEMENT_3D('',#355,#244,#245);
#209=AXIS2_PLACEMENT_3D('',#357,#246,#247);
#210=AXIS2_PLACEMENT_3D('',#359,#249,#250);
#211=AXIS2_PLACEMENT_3D('',#361,#251,#252);
#212=AXIS2_PLACEMENT_3D('',#362,#253,#254);
#213=AXIS2_PLACEMENT_3D('',#364,#255,#256);
#214=AXIS2_PLACEMENT_3D('',#366,#258,#259);
#215=AXIS2_PLACEMENT_3D('',#368,#260,#261);
#216=AXIS2_PLACEMENT_3D('',#369,#262,#263);
#217=AXIS2_PLACEMENT_3D('',#371,#264,#265);
#218=AXIS2_PLACEMENT_3D('',#373,#267,#268);
#219=DIRECTION('axis',(0.,0.,1.));
#220=DIRECTION('refdir',(1.,0.,0.));
#221=DIRECTION('center_axis',(-2.34671033386849E-16,1.,0.));
#222=DIRECTION('ref_axis',(6.12323399573677E-17,1.43694564944903E-32,1.));
#223=DIRECTION('',(2.34671033386849E-16,-1.,0.));
#224=DIRECTION('center_axis',(3.06161699786838E-16,-1.,0.));
#225=DIRECTION('ref_axis',(-1.,-2.7755575615629E-16,0.));
#226=DIRECTION('center_axis',(-1.,-2.34671033386849E-16,6.12323399573677E-17));
#227=DIRECTION('ref_axis',(-8.54245084889701E-17,0.577109656439359,0.816666666666667));
#228=DIRECTION('',(-1.,-2.34671033386849E-16,6.12323399573677E-17));
#229=DIRECTION('center_axis',(-1.,-2.34671033386849E-16,6.12323399573677E-17));
#230=DIRECTION('ref_axis',(-8.54245084889701E-17,0.577109656439359,0.816666666666667));
#231=DIRECTION('center_axis',(-2.7755575615629E-16,1.,0.));
#232=DIRECTION('ref_axis',(-1.,-2.7755575615629E-16,0.));
#233=DIRECTION('center_axis',(3.06161699786838E-16,-1.,0.));
#234=DIRECTION('ref_axis',(-1.,-3.06161699786838E-16,0.));
#235=DIRECTION('',(2.7755575615629E-16,-1.,0.));
#236=DIRECTION('center_axis',(3.06161699786838E-16,-1.,0.));
#237=DIRECTION('ref_axis',(-1.,-2.7755575615629E-16,0.));
#238=DIRECTION('center_axis',(3.06161699786838E-16,-1.,0.));
#239=DIRECTION('ref_axis',(0.,0.,-1.));
#240=DIRECTION('center_axis',(-3.06161699786838E-16,1.,0.));
#241=DIRECTION('ref_axis',(0.,0.,1.));
#242=DIRECTION('center_axis',(3.06161699786838E-16,-1.,0.));
#243=DIRECTION('ref_axis',(1.,0.,0.));
#244=DIRECTION('center_axis',(3.06161699786838E-16,-1.,0.));
#245=DIRECTION('ref_axis',(1.,0.,0.));
#246=DIRECTION('center_axis',(3.06161699786838E-16,-1.,0.));
#247=DIRECTION('ref_axis',(1.,0.,0.));
#248=DIRECTION('',(-3.06161699786838E-16,1.,0.));
#249=DIRECTION('center_axis',(-3.06161699786838E-16,1.,0.));
#250=DIRECTION('ref_axis',(0.,0.,1.));
#251=DIRECTION('center_axis',(3.06161699786838E-16,-1.,0.));
#252=DIRECTION('ref_axis',(1.,0.,0.));
#253=DIRECTION('center_axis',(3.06161699786838E-16,-1.,0.));
#254=DIRECTION('ref_axis',(1.,0.,0.));
#255=DIRECTION('center_axis',(3.06161699786838E-16,-1.,0.));
#256=DIRECTION('ref_axis',(1.,0.,0.));
#257=DIRECTION('',(-3.06161699786838E-16,1.,0.));
#258=DIRECTION('center_axis',(-3.06161699786838E-16,1.,0.));
#259=DIRECTION('ref_axis',(0.,0.,1.));
#260=DIRECTION('center_axis',(3.06161699786838E-16,-1.,0.));
#261=DIRECTION('ref_axis',(1.,0.,0.));
#262=DIRECTION('center_axis',(3.06161699786838E-16,-1.,0.));
#263=DIRECTION('ref_axis',(1.,0.,0.));
#264=DIRECTION('center_axis',(3.06161699786838E-16,-1.,0.));
#265=DIRECTION('ref_axis',(1.,0.,0.));
#266=DIRECTION('',(-3.06161699786838E-16,1.,0.));
#267=DIRECTION('center_axis',(3.06161699786838E-16,-1.,0.));
#268=DIRECTION('ref_axis',(0.,0.,-1.));
#269=CARTESIAN_POINT('',(0.,0.,0.));
#270=CARTESIAN_POINT('Origin',(-1.03523529420853E-14,37.8,2.6));
#271=CARTESIAN_POINT('',(2.44999999999998,67.8,2.6));
#272=CARTESIAN_POINT('',(-1.75425031765863E-14,67.8,0.149999999999998));
#273=CARTESIAN_POINT('Ctrl Pts',(2.44999999999998,67.8,2.6));
#274=CARTESIAN_POINT('Ctrl Pts',(2.44999999999998,67.9003899248019,2.5290579652909));
#275=CARTESIAN_POINT('Ctrl Pts',(2.44680659632859,67.9906787969471,2.4464155833424));
#276=CARTESIAN_POINT('Ctrl Pts',(2.42417405371038,68.1881316354465,2.2187032558539));
#277=CARTESIAN_POINT('Ctrl Pts',(2.38888454094787,68.2959592073558,2.02861882915127));
#278=CARTESIAN_POINT('Ctrl Pts',(2.28827301729636,68.4050510508838,1.71039380456631));
#279=CARTESIAN_POINT('Ctrl Pts',(2.21881904180293,68.4326413508342,1.54585603257345));
#280=CARTESIAN_POINT('Ctrl Pts',(2.04254775672891,68.4358677783396,1.23531098262371));
#281=CARTESIAN_POINT('Ctrl Pts',(1.93570661362366,68.4122930136131,1.08932593365793));
#282=CARTESIAN_POINT('Ctrl Pts',(1.59707522530399,68.3053566794113,0.710289607646872));
#283=CARTESIAN_POINT('Ctrl Pts',(1.31368287811405,68.1700957908998,0.50406875006993));
#284=CARTESIAN_POINT('Ctrl Pts',(0.847164946651419,67.9793794398082,0.294819372299288));
#285=CARTESIAN_POINT('Ctrl Pts',(0.684730297650802,67.9183083198734,0.241375829937288));
#286=CARTESIAN_POINT('Ctrl Pts',(0.349445960481799,67.8281723218394,0.169002102235519));
#287=CARTESIAN_POINT('Ctrl Pts',(0.176372481430993,67.8,0.15));
#288=CARTESIAN_POINT('Ctrl Pts',(-1.73298875250083E-14,67.8,0.15));
#289=CARTESIAN_POINT('',(-2.44589143708587E-14,67.8,5.05));
#290=CARTESIAN_POINT('Ctrl Pts',(-1.72431513512095E-14,67.8,5.05));
#291=CARTESIAN_POINT('Ctrl Pts',(0.176372481430993,67.8,5.05));
#292=CARTESIAN_POINT('Ctrl Pts',(0.349445960481801,67.7718276781606,5.03099789776448));
#293=CARTESIAN_POINT('Ctrl Pts',(0.684730297650807,67.6816916801266,4.95862417006271));
#294=CARTESIAN_POINT('Ctrl Pts',(0.847164946651424,67.6206205601918,4.90518062770071));
#295=CARTESIAN_POINT('Ctrl Pts',(1.31368287811405,67.4299042091002,4.69593124993007));
#296=CARTESIAN_POINT('Ctrl Pts',(1.59707522530399,67.2946433205887,4.48971039235313));
#297=CARTESIAN_POINT('Ctrl Pts',(1.93570661362366,67.1877069863869,4.11067406634207));
#298=CARTESIAN_POINT('Ctrl Pts',(2.04254775672891,67.1641322216604,3.96468901737629));
#299=CARTESIAN_POINT('Ctrl Pts',(2.21881904180293,67.1673586491658,3.65414396742655));
#300=CARTESIAN_POINT('Ctrl Pts',(2.28827301729636,67.1949489491162,3.48960619543369));
#301=CARTESIAN_POINT('Ctrl Pts',(2.38888454094787,67.3040407926442,3.17138117084872));
#302=CARTESIAN_POINT('Ctrl Pts',(2.42417405371038,67.4118683645535,2.9812967441461));
#303=CARTESIAN_POINT('Ctrl Pts',(2.44680659632859,67.6093212030529,2.7535844166576));
#304=CARTESIAN_POINT('Ctrl Pts',(2.44999999999998,67.699610075198,2.6709420347091));
#305=CARTESIAN_POINT('Ctrl Pts',(2.44999999999998,67.8,2.6));
#306=CARTESIAN_POINT('',(-2.45000000000002,67.8,2.6));
#307=CARTESIAN_POINT('Ctrl Pts',(-2.45000000000002,67.8,2.6));
#308=CARTESIAN_POINT('Ctrl Pts',(-2.45000000000002,67.699610075198,2.6709420347091));
#309=CARTESIAN_POINT('Ctrl Pts',(-2.44680659632863,67.6093212030529,2.7535844166576));
#310=CARTESIAN_POINT('Ctrl Pts',(-2.42417405371041,67.4118683645535,2.9812967441461));
#311=CARTESIAN_POINT('Ctrl Pts',(-2.38888454094791,67.3040407926442,3.17138117084872));
#312=CARTESIAN_POINT('Ctrl Pts',(-2.28827301729639,67.1949489491162,3.48960619543369));
#313=CARTESIAN_POINT('Ctrl Pts',(-2.21881904180296,67.1673586491658,3.65414396742655));
#314=CARTESIAN_POINT('Ctrl Pts',(-2.04254775672894,67.1641322216604,3.96468901737629));
#315=CARTESIAN_POINT('Ctrl Pts',(-1.9357066136237,67.1877069863869,4.11067406634207));
#316=CARTESIAN_POINT('Ctrl Pts',(-1.59707522530402,67.2946433205887,4.48971039235313));
#317=CARTESIAN_POINT('Ctrl Pts',(-1.31368287811409,67.4299042091002,4.69593124993007));
#318=CARTESIAN_POINT('Ctrl Pts',(-0.847164946651459,67.6206205601918,4.90518062770071));
#319=CARTESIAN_POINT('Ctrl Pts',(-0.684730297650842,67.6816916801266,4.95862417006271));
#320=CARTESIAN_POINT('Ctrl Pts',(-0.349445960481835,67.7718276781606,5.03099789776448));
#321=CARTESIAN_POINT('Ctrl Pts',(-0.176372481431028,67.8,5.05));
#322=CARTESIAN_POINT('Ctrl Pts',(-1.7277845820729E-14,67.8,5.05));
#323=CARTESIAN_POINT('Ctrl Pts',(-1.76421377506841E-14,67.8,0.15));
#324=CARTESIAN_POINT('Ctrl Pts',(-0.176372481431028,67.8,0.15));
#325=CARTESIAN_POINT('Ctrl Pts',(-0.349445960481837,67.8281723218394,0.169002102235519));
#326=CARTESIAN_POINT('Ctrl Pts',(-0.684730297650844,67.9183083198734,0.24137582993729));
#327=CARTESIAN_POINT('Ctrl Pts',(-0.847164946651459,67.9793794398082,0.294819372299289));
#328=CARTESIAN_POINT('Ctrl Pts',(-1.31368287811409,68.1700957908998,0.504068750069933));
#329=CARTESIAN_POINT('Ctrl Pts',(-1.59707522530402,68.3053566794113,0.710289607646873));
#330=CARTESIAN_POINT('Ctrl Pts',(-1.9357066136237,68.4122930136131,1.08932593365793));
#331=CARTESIAN_POINT('Ctrl Pts',(-2.04254775672894,68.4358677783396,1.23531098262371));
#332=CARTESIAN_POINT('Ctrl Pts',(-2.21881904180296,68.4326413508342,1.54585603257345));
#333=CARTESIAN_POINT('Ctrl Pts',(-2.28827301729639,68.4050510508838,1.71039380456631));
#334=CARTESIAN_POINT('Ctrl Pts',(-2.38888454094791,68.2959592073558,2.02861882915128));
#335=CARTESIAN_POINT('Ctrl Pts',(-2.42417405371042,68.1881316354465,2.2187032558539));
#336=CARTESIAN_POINT('Ctrl Pts',(-2.44680659632863,67.9906787969471,2.4464155833424));
#337=CARTESIAN_POINT('Ctrl Pts',(-2.45000000000002,67.9003899248019,2.5290579652909));
#338=CARTESIAN_POINT('Ctrl Pts',(-2.45000000000002,67.8,2.6));
#339=CARTESIAN_POINT('',(-1.43224761415747E-14,52.8,0.15));
#340=CARTESIAN_POINT('',(-1.08024106407719E-14,37.8,0.15));
#341=CARTESIAN_POINT('Origin',(-1.61367318051145E-14,52.8,2.6));
#342=CARTESIAN_POINT('Origin',(-1.72643471809573E-14,66.934335515341,1.375));
#343=CARTESIAN_POINT('',(-1.73924839436907E-14,67.8,2.6));
#344=CARTESIAN_POINT('Origin',(-1.75206207064242E-14,68.665664484659,3.825));
#345=CARTESIAN_POINT('Origin',(-1.58591760489582E-14,51.8,2.6));
#346=CARTESIAN_POINT('',(2.49999999999998,52.8,2.6));
#347=CARTESIAN_POINT('Origin',(-1.61367318051145E-14,52.8,2.6));
#348=CARTESIAN_POINT('',(2.49999999999998,51.8,2.6));
#349=CARTESIAN_POINT('',(2.49999999999998,51.8,2.6));
#350=CARTESIAN_POINT('Origin',(-1.58591760489582E-14,51.8,2.6));
#351=CARTESIAN_POINT('Origin',(-1.61367318051145E-14,52.8,2.6));
#352=CARTESIAN_POINT('Origin',(2.6,51.8,0.));
#353=CARTESIAN_POINT('',(-5.20000000000003,51.8,-6.36816335556626E-16));
#354=CARTESIAN_POINT('Origin',(-1.58591760489582E-14,51.8,0.));
#355=CARTESIAN_POINT('Origin',(-1.57367113690435E-14,51.4,0.));
#356=CARTESIAN_POINT('',(-5.20000000000003,51.,-6.36816335556626E-16));
#357=CARTESIAN_POINT('Origin',(-1.56142466891288E-14,51.,0.));
#358=CARTESIAN_POINT('',(-5.20000000000003,51.4,-6.36816335556626E-16));
#359=CARTESIAN_POINT('Origin',(6.6,51.,0.));
#360=CARTESIAN_POINT('',(-8.00000000000002,51.,-9.79717439317883E-16));
#361=CARTESIAN_POINT('Origin',(-1.56142466891288E-14,51.,0.));
#362=CARTESIAN_POINT('Origin',(-1.54611658392353E-14,50.5,0.));
#363=CARTESIAN_POINT('',(-8.00000000000002,50.,-9.79717439317883E-16));
#364=CARTESIAN_POINT('Origin',(-1.53080849893419E-14,50.,0.));
#365=CARTESIAN_POINT('',(-8.00000000000002,50.5,-9.79717439317883E-16));
#366=CARTESIAN_POINT('Origin',(8.49999999999999,50.,0.));
#367=CARTESIAN_POINT('',(-9.00000000000002,50.,-1.10218211923262E-15));
#368=CARTESIAN_POINT('Origin',(-1.53080849893419E-14,50.,0.));
#369=CARTESIAN_POINT('Origin',(-7.65404249467096E-15,25.,0.));
#370=CARTESIAN_POINT('',(-9.,-8.88178419700125E-15,-1.10218211923262E-15));
#371=CARTESIAN_POINT('Origin',(8.43614877747295E-31,-2.75545529808154E-15,
0.));
#372=CARTESIAN_POINT('',(-9.00000000000001,25.,-1.10218211923262E-15));
#373=CARTESIAN_POINT('Origin',(4.5,0.,0.));
#374=UNCERTAINTY_MEASURE_WITH_UNIT(LENGTH_MEASURE(0.01),#378,
'DISTANCE_ACCURACY_VALUE',
'Maximum model space distance between geometric entities at asserted c
onnectivities');
#375=UNCERTAINTY_MEASURE_WITH_UNIT(LENGTH_MEASURE(0.01),#378,
'DISTANCE_ACCURACY_VALUE',
'Maximum model space distance between geometric entities at asserted c
onnectivities');
#376=(
GEOMETRIC_REPRESENTATION_CONTEXT(3)
GLOBAL_UNCERTAINTY_ASSIGNED_CONTEXT((#374))
GLOBAL_UNIT_ASSIGNED_CONTEXT((#378,#380,#381))
REPRESENTATION_CONTEXT('','3D')
);
#377=(
GEOMETRIC_REPRESENTATION_CONTEXT(3)
GLOBAL_UNCERTAINTY_ASSIGNED_CONTEXT((#375))
GLOBAL_UNIT_ASSIGNED_CONTEXT((#378,#380,#381))
REPRESENTATION_CONTEXT('','3D')
);
#378=(
LENGTH_UNIT()
NAMED_UNIT(*)
SI_UNIT(.MILLI.,.METRE.)
);
#379=(
LENGTH_UNIT()
NAMED_UNIT(*)
SI_UNIT(.CENTI.,.METRE.)
);
#380=(
NAMED_UNIT(*)
PLANE_ANGLE_UNIT()
SI_UNIT($,.RADIAN.)
);
#381=(
NAMED_UNIT(*)
SI_UNIT($,.STERADIAN.)
SOLID_ANGLE_UNIT()
);
#382=SHAPE_DEFINITION_REPRESENTATION(#383,#384);
#383=PRODUCT_DEFINITION_SHAPE('',$,#386);
#384=SHAPE_REPRESENTATION('',(#197),#376);
#385=PRODUCT_DEFINITION_CONTEXT('part definition',#390,'design');
#386=PRODUCT_DEFINITION('IA0185_Shrinkwrap_1','IA0185_Shrinkwrap_1',#387,
#385);
#387=PRODUCT_DEFINITION_FORMATION('',$,#392);
#388=PRODUCT_RELATED_PRODUCT_CATEGORY('IA0185_Shrinkwrap_1',
'IA0185_Shrinkwrap_1',(#392));
#389=APPLICATION_PROTOCOL_DEFINITION('international standard',
'automotive_design',2009,#390);
#390=APPLICATION_CONTEXT(
'Core Data for Automotive Mechanical Design Process');
#391=PRODUCT_CONTEXT('part definition',#390,'mechanical');
#392=PRODUCT('IA0185_Shrinkwrap_1','IA0185_Shrinkwrap_1',$,(#391));
#393=PRESENTATION_STYLE_ASSIGNMENT((#399));
#394=PRESENTATION_STYLE_ASSIGNMENT((#400));
#395=PRESENTATION_STYLE_ASSIGNMENT((#401));
#396=PRESENTATION_STYLE_ASSIGNMENT((#402));
#397=PRESENTATION_STYLE_ASSIGNMENT((#403));
#398=PRESENTATION_STYLE_ASSIGNMENT((#404));
#399=SURFACE_STYLE_USAGE(.BOTH.,#415);
#400=SURFACE_STYLE_USAGE(.BOTH.,#416);
#401=SURFACE_STYLE_USAGE(.BOTH.,#417);
#402=SURFACE_STYLE_USAGE(.BOTH.,#418);
#403=SURFACE_STYLE_USAGE(.BOTH.,#419);
#404=SURFACE_STYLE_USAGE(.BOTH.,#420);
#405=SURFACE_STYLE_RENDERING_WITH_PROPERTIES($,#439,(#410));
#406=SURFACE_STYLE_RENDERING_WITH_PROPERTIES($,#440,(#411));
#407=SURFACE_STYLE_RENDERING_WITH_PROPERTIES($,#442,(#412));
#408=SURFACE_STYLE_RENDERING_WITH_PROPERTIES($,#443,(#413));
#409=SURFACE_STYLE_RENDERING_WITH_PROPERTIES($,#444,(#414));
#410=SURFACE_STYLE_TRANSPARENT(0.);
#411=SURFACE_STYLE_TRANSPARENT(0.);
#412=SURFACE_STYLE_TRANSPARENT(0.);
#413=SURFACE_STYLE_TRANSPARENT(0.);
#414=SURFACE_STYLE_TRANSPARENT(0.);
#415=SURFACE_SIDE_STYLE('',(#421,#405));
#416=SURFACE_SIDE_STYLE('',(#422,#406));
#417=SURFACE_SIDE_STYLE('',(#423));
#418=SURFACE_SIDE_STYLE('',(#424,#407));
#419=SURFACE_SIDE_STYLE('',(#425,#408));
#420=SURFACE_SIDE_STYLE('',(#426,#409));
#421=SURFACE_STYLE_FILL_AREA(#427);
#422=SURFACE_STYLE_FILL_AREA(#428);
#423=SURFACE_STYLE_FILL_AREA(#429);
#424=SURFACE_STYLE_FILL_AREA(#430);
#425=SURFACE_STYLE_FILL_AREA(#431);
#426=SURFACE_STYLE_FILL_AREA(#432);
#427=FILL_AREA_STYLE('',(#433));
#428=FILL_AREA_STYLE('',(#434));
#429=FILL_AREA_STYLE('',(#435));
#430=FILL_AREA_STYLE('',(#436));
#431=FILL_AREA_STYLE('',(#437));
#432=FILL_AREA_STYLE('',(#438));
#433=FILL_AREA_STYLE_COLOUR('',#439);
#434=FILL_AREA_STYLE_COLOUR('',#440);
#435=FILL_AREA_STYLE_COLOUR('',#441);
#436=FILL_AREA_STYLE_COLOUR('',#442);
#437=FILL_AREA_STYLE_COLOUR('',#443);
#438=FILL_AREA_STYLE_COLOUR('',#444);
#439=COLOUR_RGB('',0.749019607843137,0.749019607843137,0.749019607843137);
#440=COLOUR_RGB('',0.752941176470588,0.752941176470588,0.752941176470588);
#441=COLOUR_RGB('',0.76078431372549,0.76078431372549,0.76078431372549);
#442=COLOUR_RGB('',0.356862745098039,0.36078431372549,0.313725490196078);
#443=COLOUR_RGB('',0.,0.,0.);
#444=COLOUR_RGB('',0.,0.490196078431373,0.658823529411765);
ENDSEC;
END-ISO-10303-21;
