ISO-10303-21;
HEADER;
/* Generated by software containing ST-Developer
 * from STEP Tools, Inc. (www.steptools.com) 
 */

FILE_DESCRIPTION(
/* description */ (''),
/* implementation_level */ '2;1');

FILE_NAME(
/* name */ 
'E:\\Allgemein\\Inventor Pojekte\\Ger\X\E4te\\IA0184_Shrinkwrap_1.stp',

/* time_stamp */ '2022-03-18T10:24:40+01:00',
/* author */ ('Krieger Anja'),
/* organization */ (''),
/* preprocessor_version */ 'ST-DEVELOPER v18.1',
/* originating_system */ 'Autodesk Inventor 2021',
/* authorisation */ '');

FILE_SCHEMA (('AUTOMOTIVE_DESIGN { 1 0 10303 214 3 1 1 }'));
ENDSEC;

DATA;
#10=MECHANICAL_DESIGN_GEOMETRIC_PRESENTATION_REPRESENTATION('',(#85,#86,
#87,#88,#89,#90,#91,#92),#196);
#11=SHAPE_REPRESENTATION_RELATIONSHIP('SRR','None',#203,#12);
#12=ADVANCED_BREP_SHAPE_REPRESENTATION('',(#13),#195);
#13=MANIFOLD_SOLID_BREP('Volumenk\X\F6rper1',#100);
#14=FACE_BOUND('',#35,.T.);
#15=LINE('',#179,#17);
#16=LINE('',#191,#18);
#17=VECTOR('',#149,6.);
#18=VECTOR('',#166,2.);
#19=CYLINDRICAL_SURFACE('',#125,6.);
#20=CYLINDRICAL_SURFACE('',#132,2.);
#21=TOROIDAL_SURFACE('',#122,5.5,0.5);
#22=TOROIDAL_SURFACE('',#127,5.5,0.5);
#23=FACE_OUTER_BOUND('',#30,.T.);
#24=FACE_OUTER_BOUND('',#31,.T.);
#25=FACE_OUTER_BOUND('',#32,.T.);
#26=FACE_OUTER_BOUND('',#33,.T.);
#27=FACE_OUTER_BOUND('',#34,.T.);
#28=FACE_OUTER_BOUND('',#36,.T.);
#29=FACE_OUTER_BOUND('',#37,.T.);
#30=EDGE_LOOP('',(#62));
#31=EDGE_LOOP('',(#63,#64,#65,#66));
#32=EDGE_LOOP('',(#67,#68,#69,#70));
#33=EDGE_LOOP('',(#71,#72,#73,#74));
#34=EDGE_LOOP('',(#75));
#35=EDGE_LOOP('',(#76));
#36=EDGE_LOOP('',(#77,#78,#79,#80));
#37=EDGE_LOOP('',(#81));
#38=CIRCLE('',#121,5.499998998853);
#39=CIRCLE('',#123,0.5);
#40=CIRCLE('',#124,6.);
#41=CIRCLE('',#126,6.);
#42=CIRCLE('',#128,0.5);
#43=CIRCLE('',#129,5.499998999019);
#44=CIRCLE('',#131,2.);
#45=CIRCLE('',#133,2.);
#46=VERTEX_POINT('',#171);
#47=VERTEX_POINT('',#174);
#48=VERTEX_POINT('',#178);
#49=VERTEX_POINT('',#182);
#50=VERTEX_POINT('',#186);
#51=VERTEX_POINT('',#189);
#52=EDGE_CURVE('',#46,#46,#38,.T.);
#53=EDGE_CURVE('',#46,#47,#39,.T.);
#54=EDGE_CURVE('',#47,#47,#40,.T.);
#55=EDGE_CURVE('',#47,#48,#15,.T.);
#56=EDGE_CURVE('',#48,#48,#41,.T.);
#57=EDGE_CURVE('',#48,#49,#42,.T.);
#58=EDGE_CURVE('',#49,#49,#43,.T.);
#59=EDGE_CURVE('',#50,#50,#44,.T.);
#60=EDGE_CURVE('',#51,#51,#45,.T.);
#61=EDGE_CURVE('',#51,#50,#16,.T.);
#62=ORIENTED_EDGE('',*,*,#52,.T.);
#63=ORIENTED_EDGE('',*,*,#52,.F.);
#64=ORIENTED_EDGE('',*,*,#53,.T.);
#65=ORIENTED_EDGE('',*,*,#54,.T.);
#66=ORIENTED_EDGE('',*,*,#53,.F.);
#67=ORIENTED_EDGE('',*,*,#54,.F.);
#68=ORIENTED_EDGE('',*,*,#55,.T.);
#69=ORIENTED_EDGE('',*,*,#56,.F.);
#70=ORIENTED_EDGE('',*,*,#55,.F.);
#71=ORIENTED_EDGE('',*,*,#56,.T.);
#72=ORIENTED_EDGE('',*,*,#57,.T.);
#73=ORIENTED_EDGE('',*,*,#58,.F.);
#74=ORIENTED_EDGE('',*,*,#57,.F.);
#75=ORIENTED_EDGE('',*,*,#58,.T.);
#76=ORIENTED_EDGE('',*,*,#59,.F.);
#77=ORIENTED_EDGE('',*,*,#60,.F.);
#78=ORIENTED_EDGE('',*,*,#61,.T.);
#79=ORIENTED_EDGE('',*,*,#59,.T.);
#80=ORIENTED_EDGE('',*,*,#61,.F.);
#81=ORIENTED_EDGE('',*,*,#60,.T.);
#82=PLANE('',#120);
#83=PLANE('',#130);
#84=PLANE('',#134);
#85=STYLED_ITEM('',(#213),#93);
#86=STYLED_ITEM('',(#214),#94);
#87=STYLED_ITEM('',(#214),#95);
#88=STYLED_ITEM('',(#215),#96);
#89=STYLED_ITEM('',(#215),#97);
#90=STYLED_ITEM('',(#216),#98);
#91=STYLED_ITEM('',(#216),#99);
#92=STYLED_ITEM('',(#212),#13);
#93=ADVANCED_FACE('',(#23),#82,.T.);
#94=ADVANCED_FACE('',(#24),#21,.T.);
#95=ADVANCED_FACE('',(#25),#19,.T.);
#96=ADVANCED_FACE('',(#26),#22,.T.);
#97=ADVANCED_FACE('',(#27,#14),#83,.F.);
#98=ADVANCED_FACE('',(#28),#20,.T.);
#99=ADVANCED_FACE('',(#29),#84,.T.);
#100=CLOSED_SHELL('',(#93,#94,#95,#96,#97,#98,#99));
#101=DERIVED_UNIT_ELEMENT(#103,1.);
#102=DERIVED_UNIT_ELEMENT(#198,3.);
#103=(
MASS_UNIT()
NAMED_UNIT(*)
SI_UNIT($,.GRAM.)
);
#104=DERIVED_UNIT((#101,#102));
#105=MEASURE_REPRESENTATION_ITEM('density measure',
POSITIVE_RATIO_MEASURE(1.),#104);
#106=PROPERTY_DEFINITION_REPRESENTATION(#111,#108);
#107=PROPERTY_DEFINITION_REPRESENTATION(#112,#109);
#108=REPRESENTATION('material name',(#110),#195);
#109=REPRESENTATION('density',(#105),#195);
#110=DESCRIPTIVE_REPRESENTATION_ITEM('Allgemein','Allgemein');
#111=PROPERTY_DEFINITION('material property','material name',#205);
#112=PROPERTY_DEFINITION('material property','density of part',#205);
#113=DATE_TIME_ROLE('creation_date');
#114=APPLIED_DATE_AND_TIME_ASSIGNMENT(#115,#113,(#205));
#115=DATE_AND_TIME(#116,#117);
#116=CALENDAR_DATE(2022,18,3);
#117=LOCAL_TIME(0,0,0.,#118);
#118=COORDINATED_UNIVERSAL_TIME_OFFSET(0,0,.BEHIND.);
#119=AXIS2_PLACEMENT_3D('placement',#169,#135,#136);
#120=AXIS2_PLACEMENT_3D('',#170,#137,#138);
#121=AXIS2_PLACEMENT_3D('',#172,#139,#140);
#122=AXIS2_PLACEMENT_3D('',#173,#141,#142);
#123=AXIS2_PLACEMENT_3D('',#175,#143,#144);
#124=AXIS2_PLACEMENT_3D('',#176,#145,#146);
#125=AXIS2_PLACEMENT_3D('',#177,#147,#148);
#126=AXIS2_PLACEMENT_3D('',#180,#150,#151);
#127=AXIS2_PLACEMENT_3D('',#181,#152,#153);
#128=AXIS2_PLACEMENT_3D('',#183,#154,#155);
#129=AXIS2_PLACEMENT_3D('',#184,#156,#157);
#130=AXIS2_PLACEMENT_3D('',#185,#158,#159);
#131=AXIS2_PLACEMENT_3D('',#187,#160,#161);
#132=AXIS2_PLACEMENT_3D('',#188,#162,#163);
#133=AXIS2_PLACEMENT_3D('',#190,#164,#165);
#134=AXIS2_PLACEMENT_3D('',#192,#167,#168);
#135=DIRECTION('axis',(0.,0.,1.));
#136=DIRECTION('refdir',(1.,0.,0.));
#137=DIRECTION('center_axis',(0.,0.,1.));
#138=DIRECTION('ref_axis',(1.,0.,0.));
#139=DIRECTION('center_axis',(0.,0.,1.));
#140=DIRECTION('ref_axis',(-1.,0.,0.));
#141=DIRECTION('center_axis',(0.,0.,1.));
#142=DIRECTION('ref_axis',(1.,0.,0.));
#143=DIRECTION('center_axis',(1.22464679914735E-16,-1.,0.));
#144=DIRECTION('ref_axis',(-1.,-1.22464679914735E-16,0.));
#145=DIRECTION('center_axis',(0.,0.,1.));
#146=DIRECTION('ref_axis',(-1.,0.,0.));
#147=DIRECTION('center_axis',(0.,0.,1.));
#148=DIRECTION('ref_axis',(1.,0.,0.));
#149=DIRECTION('',(0.,0.,-1.));
#150=DIRECTION('center_axis',(0.,0.,-1.));
#151=DIRECTION('ref_axis',(-1.,0.,0.));
#152=DIRECTION('center_axis',(0.,0.,1.));
#153=DIRECTION('ref_axis',(1.,0.,0.));
#154=DIRECTION('center_axis',(1.22464679914735E-16,-1.,0.));
#155=DIRECTION('ref_axis',(-1.,-1.22464679914735E-16,0.));
#156=DIRECTION('center_axis',(0.,0.,-1.));
#157=DIRECTION('ref_axis',(-1.,0.,0.));
#158=DIRECTION('center_axis',(0.,0.,1.));
#159=DIRECTION('ref_axis',(1.,0.,0.));
#160=DIRECTION('center_axis',(0.,0.,-1.));
#161=DIRECTION('ref_axis',(1.,0.,0.));
#162=DIRECTION('center_axis',(0.,0.,-1.));
#163=DIRECTION('ref_axis',(1.,0.,0.));
#164=DIRECTION('center_axis',(0.,0.,-1.));
#165=DIRECTION('ref_axis',(1.,0.,0.));
#166=DIRECTION('',(0.,0.,1.));
#167=DIRECTION('center_axis',(0.,0.,-1.));
#168=DIRECTION('ref_axis',(-1.,0.,0.));
#169=CARTESIAN_POINT('',(0.,0.,0.));
#170=CARTESIAN_POINT('Origin',(0.,0.,0.));
#171=CARTESIAN_POINT('',(-5.499998998853,-6.73555616925897E-16,-1.0023232244194E-12));
#172=CARTESIAN_POINT('Origin',(0.,0.,-1.002309346632E-12));
#173=CARTESIAN_POINT('Origin',(0.,0.,-0.5));
#174=CARTESIAN_POINT('',(-6.,-7.34788079488412E-16,-0.5));
#175=CARTESIAN_POINT('Origin',(-5.5,-6.73555739531044E-16,-0.5));
#176=CARTESIAN_POINT('Origin',(0.,0.,-0.5));
#177=CARTESIAN_POINT('Origin',(0.,0.,0.));
#178=CARTESIAN_POINT('',(-6.,-7.34788079488412E-16,-49.5));
#179=CARTESIAN_POINT('',(-6.,-7.34788079488412E-16,0.));
#180=CARTESIAN_POINT('Origin',(0.,0.,-49.5));
#181=CARTESIAN_POINT('Origin',(0.,0.,-49.5));
#182=CARTESIAN_POINT('',(-5.499998999019,-6.73555616946227E-16,-50.));
#183=CARTESIAN_POINT('Origin',(-5.5,-6.73555739531044E-16,-49.5));
#184=CARTESIAN_POINT('Origin',(0.,0.,-50.));
#185=CARTESIAN_POINT('Origin',(0.,0.,-50.));
#186=CARTESIAN_POINT('',(-2.,2.44929359829471E-16,-50.));
#187=CARTESIAN_POINT('Origin',(0.,0.,-50.));
#188=CARTESIAN_POINT('Origin',(0.,0.,-50.));
#189=CARTESIAN_POINT('',(-2.,2.44929359829471E-16,-60.));
#190=CARTESIAN_POINT('Origin',(0.,0.,-60.));
#191=CARTESIAN_POINT('',(-2.,2.44929359829471E-16,-50.));
#192=CARTESIAN_POINT('Origin',(0.,0.,-60.));
#193=UNCERTAINTY_MEASURE_WITH_UNIT(LENGTH_MEASURE(0.01),#197,
'DISTANCE_ACCURACY_VALUE',
'Maximum model space distance between geometric entities at asserted c
onnectivities');
#194=UNCERTAINTY_MEASURE_WITH_UNIT(LENGTH_MEASURE(0.01),#197,
'DISTANCE_ACCURACY_VALUE',
'Maximum model space distance between geometric entities at asserted c
onnectivities');
#195=(
GEOMETRIC_REPRESENTATION_CONTEXT(3)
GLOBAL_UNCERTAINTY_ASSIGNED_CONTEXT((#193))
GLOBAL_UNIT_ASSIGNED_CONTEXT((#197,#199,#200))
REPRESENTATION_CONTEXT('','3D')
);
#196=(
GEOMETRIC_REPRESENTATION_CONTEXT(3)
GLOBAL_UNCERTAINTY_ASSIGNED_CONTEXT((#194))
GLOBAL_UNIT_ASSIGNED_CONTEXT((#197,#199,#200))
REPRESENTATION_CONTEXT('','3D')
);
#197=(
LENGTH_UNIT()
NAMED_UNIT(*)
SI_UNIT(.MILLI.,.METRE.)
);
#198=(
LENGTH_UNIT()
NAMED_UNIT(*)
SI_UNIT(.CENTI.,.METRE.)
);
#199=(
NAMED_UNIT(*)
PLANE_ANGLE_UNIT()
SI_UNIT($,.RADIAN.)
);
#200=(
NAMED_UNIT(*)
SI_UNIT($,.STERADIAN.)
SOLID_ANGLE_UNIT()
);
#201=SHAPE_DEFINITION_REPRESENTATION(#202,#203);
#202=PRODUCT_DEFINITION_SHAPE('',$,#205);
#203=SHAPE_REPRESENTATION('',(#119),#195);
#204=PRODUCT_DEFINITION_CONTEXT('part definition',#209,'design');
#205=PRODUCT_DEFINITION('IA0184_Shrinkwrap_1','IA0184_Shrinkwrap_1',#206,
#204);
#206=PRODUCT_DEFINITION_FORMATION('',$,#211);
#207=PRODUCT_RELATED_PRODUCT_CATEGORY('IA0184_Shrinkwrap_1',
'IA0184_Shrinkwrap_1',(#211));
#208=APPLICATION_PROTOCOL_DEFINITION('international standard',
'automotive_design',2009,#209);
#209=APPLICATION_CONTEXT(
'Core Data for Automotive Mechanical Design Process');
#210=PRODUCT_CONTEXT('part definition',#209,'mechanical');
#211=PRODUCT('IA0184_Shrinkwrap_1','IA0184_Shrinkwrap_1',$,(#210));
#212=PRESENTATION_STYLE_ASSIGNMENT((#217));
#213=PRESENTATION_STYLE_ASSIGNMENT((#218));
#214=PRESENTATION_STYLE_ASSIGNMENT((#219));
#215=PRESENTATION_STYLE_ASSIGNMENT((#220));
#216=PRESENTATION_STYLE_ASSIGNMENT((#221));
#217=SURFACE_STYLE_USAGE(.BOTH.,#230);
#218=SURFACE_STYLE_USAGE(.BOTH.,#231);
#219=SURFACE_STYLE_USAGE(.BOTH.,#232);
#220=SURFACE_STYLE_USAGE(.BOTH.,#233);
#221=SURFACE_STYLE_USAGE(.BOTH.,#234);
#222=SURFACE_STYLE_RENDERING_WITH_PROPERTIES($,#250,(#226));
#223=SURFACE_STYLE_RENDERING_WITH_PROPERTIES($,#251,(#227));
#224=SURFACE_STYLE_RENDERING_WITH_PROPERTIES($,#252,(#228));
#225=SURFACE_STYLE_RENDERING_WITH_PROPERTIES($,#254,(#229));
#226=SURFACE_STYLE_TRANSPARENT(0.);
#227=SURFACE_STYLE_TRANSPARENT(0.);
#228=SURFACE_STYLE_TRANSPARENT(0.);
#229=SURFACE_STYLE_TRANSPARENT(0.);
#230=SURFACE_SIDE_STYLE('',(#235,#222));
#231=SURFACE_SIDE_STYLE('',(#236,#223));
#232=SURFACE_SIDE_STYLE('',(#237,#224));
#233=SURFACE_SIDE_STYLE('',(#238));
#234=SURFACE_SIDE_STYLE('',(#239,#225));
#235=SURFACE_STYLE_FILL_AREA(#240);
#236=SURFACE_STYLE_FILL_AREA(#241);
#237=SURFACE_STYLE_FILL_AREA(#242);
#238=SURFACE_STYLE_FILL_AREA(#243);
#239=SURFACE_STYLE_FILL_AREA(#244);
#240=FILL_AREA_STYLE('',(#245));
#241=FILL_AREA_STYLE('',(#246));
#242=FILL_AREA_STYLE('',(#247));
#243=FILL_AREA_STYLE('',(#248));
#244=FILL_AREA_STYLE('',(#249));
#245=FILL_AREA_STYLE_COLOUR('',#250);
#246=FILL_AREA_STYLE_COLOUR('',#251);
#247=FILL_AREA_STYLE_COLOUR('',#252);
#248=FILL_AREA_STYLE_COLOUR('',#253);
#249=FILL_AREA_STYLE_COLOUR('',#254);
#250=COLOUR_RGB('',0.749019607843137,0.749019607843137,0.749019607843137);
#251=COLOUR_RGB('',0.333333333333333,0.337254901960784,0.294117647058824);
#252=COLOUR_RGB('',0.419607843137255,0.423529411764706,0.368627450980392);
#253=COLOUR_RGB('',0.76078431372549,0.76078431372549,0.76078431372549);
#254=COLOUR_RGB('',0.,0.,0.);
ENDSEC;
END-ISO-10303-21;
