ISO-10303-21;
HEADER;
/* Generated by software containing ST-Developer
 * from STEP Tools, Inc. (www.steptools.com) 
 */

FILE_DESCRIPTION(
/* description */ (''),
/* implementation_level */ '2;1');

FILE_NAME(
/* name */ 
'E:\\Allgemein\\Inventor Pojekte\\Ger\X\E4te\\IA0092_Shrinkwrap_1.stp',

/* time_stamp */ '2022-06-02T13:56:17+02:00',
/* author */ ('Krieger Anja'),
/* organization */ (''),
/* preprocessor_version */ 'ST-DEVELOPER v18.1',
/* originating_system */ 'Autodesk Inventor 2021',
/* authorisation */ '');

FILE_SCHEMA (('AUTOMOTIVE_DESIGN { 1 0 10303 214 3 1 1 }'));
ENDSEC;

DATA;
#10=MECHANICAL_DESIGN_GEOMETRIC_PRESENTATION_REPRESENTATION('',(#166,#167,
#168,#169,#170,#171,#172,#173,#174,#175,#176,#177,#178),#402);
#11=SHAPE_REPRESENTATION_RELATIONSHIP('SRR','None',#409,#12);
#12=ADVANCED_BREP_SHAPE_REPRESENTATION('',(#13),#401);
#13=MANIFOLD_SOLID_BREP('Volumenk\X\F6rper1',#191);
#14=CONICAL_SURFACE('',#223,8.75,0.785398163397447);
#15=CONICAL_SURFACE('',#233,3.15,0.785398163397454);
#16=FACE_BOUND('',#40,.T.);
#17=FACE_BOUND('',#45,.T.);
#18=FACE_BOUND('',#48,.T.);
#19=PLANE('',#215);
#20=PLANE('',#217);
#21=PLANE('',#226);
#22=PLANE('',#231);
#23=FACE_OUTER_BOUND('',#35,.T.);
#24=FACE_OUTER_BOUND('',#36,.T.);
#25=FACE_OUTER_BOUND('',#37,.T.);
#26=FACE_OUTER_BOUND('',#38,.T.);
#27=FACE_OUTER_BOUND('',#39,.T.);
#28=FACE_OUTER_BOUND('',#41,.T.);
#29=FACE_OUTER_BOUND('',#42,.T.);
#30=FACE_OUTER_BOUND('',#43,.T.);
#31=FACE_OUTER_BOUND('',#44,.T.);
#32=FACE_OUTER_BOUND('',#46,.T.);
#33=FACE_OUTER_BOUND('',#47,.T.);
#34=FACE_OUTER_BOUND('',#49,.T.);
#35=EDGE_LOOP('',(#116,#117,#118,#119,#120,#121,#122));
#36=EDGE_LOOP('',(#123,#124,#125));
#37=EDGE_LOOP('',(#126,#127,#128));
#38=EDGE_LOOP('',(#129));
#39=EDGE_LOOP('',(#130));
#40=EDGE_LOOP('',(#131));
#41=EDGE_LOOP('',(#132,#133,#134,#135,#136));
#42=EDGE_LOOP('',(#137,#138,#139,#140,#141));
#43=EDGE_LOOP('',(#142,#143,#144,#145));
#44=EDGE_LOOP('',(#146));
#45=EDGE_LOOP('',(#147));
#46=EDGE_LOOP('',(#148,#149,#150,#151,#152));
#47=EDGE_LOOP('',(#153));
#48=EDGE_LOOP('',(#154));
#49=EDGE_LOOP('',(#155,#156,#157,#158,#159));
#50=CIRCLE('',#212,2.5);
#51=CIRCLE('',#216,9.);
#52=CIRCLE('',#218,8.50000000000001);
#53=CIRCLE('',#219,8.25);
#54=CIRCLE('',#221,9.);
#55=CIRCLE('',#222,9.);
#56=CIRCLE('',#225,8.25000000000001);
#57=CIRCLE('',#227,3.4);
#58=CIRCLE('',#229,3.4);
#59=CIRCLE('',#230,3.4);
#60=CIRCLE('',#232,2.9);
#61=LINE('',#344,#68);
#62=LINE('',#363,#69);
#63=LINE('',#375,#70);
#64=LINE('',#380,#71);
#65=LINE('',#383,#72);
#66=LINE('',#390,#73);
#67=LINE('',#398,#74);
#68=VECTOR('',#238,2.5);
#69=VECTOR('',#243,10.);
#70=VECTOR('',#258,9.);
#71=VECTOR('',#265,8.75);
#72=VECTOR('',#268,8.25);
#73=VECTOR('',#277,3.4);
#74=VECTOR('',#288,3.15);
#75=B_SPLINE_CURVE_WITH_KNOTS('',3,(#293,#294,#295,#296,#297,#298,#299,
#300,#301,#302,#303,#304,#305,#306,#307,#308),.UNSPECIFIED.,.F.,.F.,(4,
2,2,2,2,2,2,4),(1.49197954410026,1.54581347205277,1.59964740000528,1.7073152559103,
1.75803500403498,1.80875475215967,1.86453347812614,1.90484061710069),
 .UNSPECIFIED.);
#76=B_SPLINE_CURVE_WITH_KNOTS('',3,(#310,#311,#312,#313,#314,#315,#316,
#317,#318,#319,#320,#321,#322,#323,#324,#325),.UNSPECIFIED.,.F.,.F.,(4,
2,2,2,2,2,2,4),(1.07911847109982,1.11942561007437,1.17520433604084,1.22592408416553,
1.27664383229021,1.38431168819523,1.43814561614774,1.49197954410026),
 .UNSPECIFIED.);
#77=B_SPLINE_CURVE_WITH_KNOTS('',3,(#327,#328,#329,#330,#331,#332,#333,
#334,#335,#336,#337,#338,#339,#340,#341,#342),.UNSPECIFIED.,.F.,.F.,(4,
2,2,2,2,2,2,4),(0.497326514700087,0.551160442652598,0.60499437060511,0.712662226510132,
0.763381974634818,0.814101722759503,0.869880448725977,0.910187587700526),
 .UNSPECIFIED.);
#78=B_SPLINE_CURVE_WITH_KNOTS('',3,(#346,#347,#348,#349,#350,#351,#352,
#353,#354,#355,#356,#357,#358,#359,#360,#361),.UNSPECIFIED.,.F.,.F.,(4,
2,2,2,2,2,2,4),(0.0844654416996482,0.124772580674198,0.180551306640671,
0.231271054765357,0.281990802890043,0.389658658795065,0.443492586747576,
0.497326514700087),.UNSPECIFIED.);
#79=VERTEX_POINT('',#291);
#80=VERTEX_POINT('',#292);
#81=VERTEX_POINT('',#309);
#82=VERTEX_POINT('',#326);
#83=VERTEX_POINT('',#343);
#84=VERTEX_POINT('',#366);
#85=VERTEX_POINT('',#369);
#86=VERTEX_POINT('',#371);
#87=VERTEX_POINT('',#374);
#88=VERTEX_POINT('',#376);
#89=VERTEX_POINT('',#382);
#90=VERTEX_POINT('',#386);
#91=VERTEX_POINT('',#389);
#92=VERTEX_POINT('',#391);
#93=VERTEX_POINT('',#395);
#94=EDGE_CURVE('',#79,#80,#75,.T.);
#95=EDGE_CURVE('',#81,#79,#76,.T.);
#96=EDGE_CURVE('',#82,#81,#77,.T.);
#97=EDGE_CURVE('',#82,#83,#61,.T.);
#98=EDGE_CURVE('',#83,#83,#50,.T.);
#99=EDGE_CURVE('',#80,#82,#78,.T.);
#100=EDGE_CURVE('',#81,#80,#62,.T.);
#101=EDGE_CURVE('',#84,#84,#51,.T.);
#102=EDGE_CURVE('',#85,#85,#52,.T.);
#103=EDGE_CURVE('',#86,#86,#53,.T.);
#104=EDGE_CURVE('',#84,#87,#63,.T.);
#105=EDGE_CURVE('',#88,#87,#54,.T.);
#106=EDGE_CURVE('',#87,#88,#55,.T.);
#107=EDGE_CURVE('',#88,#85,#64,.T.);
#108=EDGE_CURVE('',#86,#89,#65,.T.);
#109=EDGE_CURVE('',#89,#89,#56,.T.);
#110=EDGE_CURVE('',#90,#90,#57,.T.);
#111=EDGE_CURVE('',#90,#91,#66,.T.);
#112=EDGE_CURVE('',#92,#91,#58,.T.);
#113=EDGE_CURVE('',#91,#92,#59,.T.);
#114=EDGE_CURVE('',#93,#93,#60,.T.);
#115=EDGE_CURVE('',#92,#93,#67,.T.);
#116=ORIENTED_EDGE('',*,*,#94,.F.);
#117=ORIENTED_EDGE('',*,*,#95,.F.);
#118=ORIENTED_EDGE('',*,*,#96,.F.);
#119=ORIENTED_EDGE('',*,*,#97,.T.);
#120=ORIENTED_EDGE('',*,*,#98,.F.);
#121=ORIENTED_EDGE('',*,*,#97,.F.);
#122=ORIENTED_EDGE('',*,*,#99,.F.);
#123=ORIENTED_EDGE('',*,*,#99,.T.);
#124=ORIENTED_EDGE('',*,*,#96,.T.);
#125=ORIENTED_EDGE('',*,*,#100,.T.);
#126=ORIENTED_EDGE('',*,*,#94,.T.);
#127=ORIENTED_EDGE('',*,*,#100,.F.);
#128=ORIENTED_EDGE('',*,*,#95,.T.);
#129=ORIENTED_EDGE('',*,*,#101,.T.);
#130=ORIENTED_EDGE('',*,*,#102,.F.);
#131=ORIENTED_EDGE('',*,*,#103,.T.);
#132=ORIENTED_EDGE('',*,*,#101,.F.);
#133=ORIENTED_EDGE('',*,*,#104,.T.);
#134=ORIENTED_EDGE('',*,*,#105,.F.);
#135=ORIENTED_EDGE('',*,*,#106,.F.);
#136=ORIENTED_EDGE('',*,*,#104,.F.);
#137=ORIENTED_EDGE('',*,*,#105,.T.);
#138=ORIENTED_EDGE('',*,*,#106,.T.);
#139=ORIENTED_EDGE('',*,*,#107,.T.);
#140=ORIENTED_EDGE('',*,*,#102,.T.);
#141=ORIENTED_EDGE('',*,*,#107,.F.);
#142=ORIENTED_EDGE('',*,*,#103,.F.);
#143=ORIENTED_EDGE('',*,*,#108,.T.);
#144=ORIENTED_EDGE('',*,*,#109,.T.);
#145=ORIENTED_EDGE('',*,*,#108,.F.);
#146=ORIENTED_EDGE('',*,*,#109,.F.);
#147=ORIENTED_EDGE('',*,*,#110,.T.);
#148=ORIENTED_EDGE('',*,*,#110,.F.);
#149=ORIENTED_EDGE('',*,*,#111,.T.);
#150=ORIENTED_EDGE('',*,*,#112,.F.);
#151=ORIENTED_EDGE('',*,*,#113,.F.);
#152=ORIENTED_EDGE('',*,*,#111,.F.);
#153=ORIENTED_EDGE('',*,*,#114,.F.);
#154=ORIENTED_EDGE('',*,*,#98,.T.);
#155=ORIENTED_EDGE('',*,*,#112,.T.);
#156=ORIENTED_EDGE('',*,*,#113,.T.);
#157=ORIENTED_EDGE('',*,*,#115,.T.);
#158=ORIENTED_EDGE('',*,*,#114,.T.);
#159=ORIENTED_EDGE('',*,*,#115,.F.);
#160=CYLINDRICAL_SURFACE('',#211,2.5);
#161=CYLINDRICAL_SURFACE('',#213,1.5);
#162=CYLINDRICAL_SURFACE('',#214,1.5);
#163=CYLINDRICAL_SURFACE('',#220,9.);
#164=CYLINDRICAL_SURFACE('',#224,8.25);
#165=CYLINDRICAL_SURFACE('',#228,3.4);
#166=STYLED_ITEM('',(#419),#179);
#167=STYLED_ITEM('',(#419),#180);
#168=STYLED_ITEM('',(#419),#181);
#169=STYLED_ITEM('',(#420),#182);
#170=STYLED_ITEM('',(#421),#183);
#171=STYLED_ITEM('',(#421),#184);
#172=STYLED_ITEM('',(#421),#185);
#173=STYLED_ITEM('',(#422),#186);
#174=STYLED_ITEM('',(#422),#187);
#175=STYLED_ITEM('',(#422),#188);
#176=STYLED_ITEM('',(#422),#189);
#177=STYLED_ITEM('',(#422),#190);
#178=STYLED_ITEM('',(#418),#13);
#179=ADVANCED_FACE('',(#23),#160,.T.);
#180=ADVANCED_FACE('',(#24),#161,.F.);
#181=ADVANCED_FACE('',(#25),#162,.T.);
#182=ADVANCED_FACE('',(#26),#19,.T.);
#183=ADVANCED_FACE('',(#27,#16),#20,.T.);
#184=ADVANCED_FACE('',(#28),#163,.T.);
#185=ADVANCED_FACE('',(#29),#14,.T.);
#186=ADVANCED_FACE('',(#30),#164,.T.);
#187=ADVANCED_FACE('',(#31,#17),#21,.T.);
#188=ADVANCED_FACE('',(#32),#165,.T.);
#189=ADVANCED_FACE('',(#33,#18),#22,.T.);
#190=ADVANCED_FACE('',(#34),#15,.T.);
#191=CLOSED_SHELL('',(#179,#180,#181,#182,#183,#184,#185,#186,#187,#188,
#189,#190));
#192=DERIVED_UNIT_ELEMENT(#194,1.);
#193=DERIVED_UNIT_ELEMENT(#404,3.);
#194=(
MASS_UNIT()
NAMED_UNIT(*)
SI_UNIT($,.GRAM.)
);
#195=DERIVED_UNIT((#192,#193));
#196=MEASURE_REPRESENTATION_ITEM('density measure',
POSITIVE_RATIO_MEASURE(1.),#195);
#197=PROPERTY_DEFINITION_REPRESENTATION(#202,#199);
#198=PROPERTY_DEFINITION_REPRESENTATION(#203,#200);
#199=REPRESENTATION('material name',(#201),#401);
#200=REPRESENTATION('density',(#196),#401);
#201=DESCRIPTIVE_REPRESENTATION_ITEM('Allgemein','Allgemein');
#202=PROPERTY_DEFINITION('material property','material name',#411);
#203=PROPERTY_DEFINITION('material property','density of part',#411);
#204=DATE_TIME_ROLE('creation_date');
#205=APPLIED_DATE_AND_TIME_ASSIGNMENT(#206,#204,(#411));
#206=DATE_AND_TIME(#207,#208);
#207=CALENDAR_DATE(2022,2,6);
#208=LOCAL_TIME(0,0,0.,#209);
#209=COORDINATED_UNIVERSAL_TIME_OFFSET(0,0,.BEHIND.);
#210=AXIS2_PLACEMENT_3D('placement',#289,#234,#235);
#211=AXIS2_PLACEMENT_3D('',#290,#236,#237);
#212=AXIS2_PLACEMENT_3D('',#345,#239,#240);
#213=AXIS2_PLACEMENT_3D('',#362,#241,#242);
#214=AXIS2_PLACEMENT_3D('',#364,#244,#245);
#215=AXIS2_PLACEMENT_3D('',#365,#246,#247);
#216=AXIS2_PLACEMENT_3D('',#367,#248,#249);
#217=AXIS2_PLACEMENT_3D('',#368,#250,#251);
#218=AXIS2_PLACEMENT_3D('',#370,#252,#253);
#219=AXIS2_PLACEMENT_3D('',#372,#254,#255);
#220=AXIS2_PLACEMENT_3D('',#373,#256,#257);
#221=AXIS2_PLACEMENT_3D('',#377,#259,#260);
#222=AXIS2_PLACEMENT_3D('',#378,#261,#262);
#223=AXIS2_PLACEMENT_3D('',#379,#263,#264);
#224=AXIS2_PLACEMENT_3D('',#381,#266,#267);
#225=AXIS2_PLACEMENT_3D('',#384,#269,#270);
#226=AXIS2_PLACEMENT_3D('',#385,#271,#272);
#227=AXIS2_PLACEMENT_3D('',#387,#273,#274);
#228=AXIS2_PLACEMENT_3D('',#388,#275,#276);
#229=AXIS2_PLACEMENT_3D('',#392,#278,#279);
#230=AXIS2_PLACEMENT_3D('',#393,#280,#281);
#231=AXIS2_PLACEMENT_3D('',#394,#282,#283);
#232=AXIS2_PLACEMENT_3D('',#396,#284,#285);
#233=AXIS2_PLACEMENT_3D('',#397,#286,#287);
#234=DIRECTION('axis',(0.,0.,1.));
#235=DIRECTION('refdir',(1.,0.,0.));
#236=DIRECTION('center_axis',(-7.50947306837912E-16,1.,8.75811540203011E-47));
#237=DIRECTION('ref_axis',(-6.12323399573677E-17,-4.59822607823688E-32,
1.));
#238=DIRECTION('',(7.50947306837912E-16,-1.,-8.75811540203011E-47));
#239=DIRECTION('center_axis',(-2.77555756156289E-17,-1.,0.));
#240=DIRECTION('ref_axis',(1.,0.,0.));
#241=DIRECTION('center_axis',(1.,7.50947306837912E-16,6.12323399573677E-17));
#242=DIRECTION('ref_axis',(-3.64074792387067E-16,0.552770798392566,-0.833333333333334));
#243=DIRECTION('',(1.,7.50947306837912E-16,6.12323399573677E-17));
#244=DIRECTION('center_axis',(1.,7.50947306837912E-16,6.12323399573677E-17));
#245=DIRECTION('ref_axis',(-3.64074792387067E-16,0.552770798392566,-0.833333333333334));
#246=DIRECTION('center_axis',(5.51091059616309E-16,-1.,0.));
#247=DIRECTION('ref_axis',(0.,0.,-1.));
#248=DIRECTION('center_axis',(5.51091059616309E-16,-1.,0.));
#249=DIRECTION('ref_axis',(1.,4.93526883532674E-16,0.));
#250=DIRECTION('center_axis',(-5.51091059616309E-16,1.,0.));
#251=DIRECTION('ref_axis',(0.,0.,1.));
#252=DIRECTION('center_axis',(5.51091059616309E-16,-1.,0.));
#253=DIRECTION('ref_axis',(-1.,-5.51091059616309E-16,0.));
#254=DIRECTION('center_axis',(5.51091059616309E-16,-1.,0.));
#255=DIRECTION('ref_axis',(1.,0.,0.));
#256=DIRECTION('center_axis',(5.51091059616309E-16,-1.,0.));
#257=DIRECTION('ref_axis',(1.,4.93526883532674E-16,0.));
#258=DIRECTION('',(-5.51091059616309E-16,1.,0.));
#259=DIRECTION('center_axis',(-5.51091059616309E-16,1.,0.));
#260=DIRECTION('ref_axis',(-1.,-4.93526883532674E-16,0.));
#261=DIRECTION('center_axis',(-5.51091059616309E-16,1.,0.));
#262=DIRECTION('ref_axis',(-1.,-4.93526883532674E-16,0.));
#263=DIRECTION('center_axis',(5.51091059616307E-16,-1.,0.));
#264=DIRECTION('ref_axis',(-1.,-5.21486626201868E-16,0.));
#265=DIRECTION('',(-0.707106781186547,0.707106781186548,-8.65956056235493E-17));
#266=DIRECTION('center_axis',(-2.77555756156289E-17,-1.,0.));
#267=DIRECTION('ref_axis',(1.,0.,0.));
#268=DIRECTION('',(2.77555756156289E-17,1.,0.));
#269=DIRECTION('center_axis',(-2.77555756156289E-17,-1.,0.));
#270=DIRECTION('ref_axis',(1.,0.,0.));
#271=DIRECTION('center_axis',(2.77555756156289E-17,1.,0.));
#272=DIRECTION('ref_axis',(0.,0.,1.));
#273=DIRECTION('center_axis',(-2.77555756156289E-17,-1.,0.));
#274=DIRECTION('ref_axis',(1.,0.,0.));
#275=DIRECTION('center_axis',(-2.77555756156289E-17,-1.,0.));
#276=DIRECTION('ref_axis',(1.,0.,0.));
#277=DIRECTION('',(2.77555756156289E-17,1.,0.));
#278=DIRECTION('center_axis',(2.77555756156289E-17,1.,0.));
#279=DIRECTION('ref_axis',(-1.,0.,0.));
#280=DIRECTION('center_axis',(2.77555756156289E-17,1.,0.));
#281=DIRECTION('ref_axis',(-1.,0.,0.));
#282=DIRECTION('center_axis',(2.77555756156289E-17,1.,0.));
#283=DIRECTION('ref_axis',(0.,0.,1.));
#284=DIRECTION('center_axis',(-2.77555756156289E-17,-1.,0.));
#285=DIRECTION('ref_axis',(-1.,2.77555756156289E-17,0.));
#286=DIRECTION('center_axis',(-2.7755575615629E-17,-1.,0.));
#287=DIRECTION('ref_axis',(-1.,1.27763760770355E-17,0.));
#288=DIRECTION('',(-0.707106781186552,0.707106781186543,-8.65956056235499E-17));
#289=CARTESIAN_POINT('',(0.,0.,0.));
#290=CARTESIAN_POINT('Origin',(4.71844785465692E-15,19.,0.));
#291=CARTESIAN_POINT('',(-1.77635683940025E-14,49.,2.50000000000001));
#292=CARTESIAN_POINT('',(2.49999999999998,49.,7.21644966006352E-15));
#293=CARTESIAN_POINT('Ctrl Pts',(-1.77635683940025E-14,49.,2.5));
#294=CARTESIAN_POINT('Ctrl Pts',(0.17944642650835,49.,2.5));
#295=CARTESIAN_POINT('Ctrl Pts',(0.354679132423272,49.0303808168916,2.48077868573213));
#296=CARTESIAN_POINT('Ctrl Pts',(0.693888847942411,49.1261253102278,2.4080356099434));
#297=CARTESIAN_POINT('Ctrl Pts',(0.858139072982623,49.1904513545459,2.35442613592639));
#298=CARTESIAN_POINT('Ctrl Pts',(1.33077484340052,49.3905471090836,2.1442833666942));
#299=CARTESIAN_POINT('Ctrl Pts',(1.61893245017803,49.5315710465564,1.93698279644254));
#300=CARTESIAN_POINT('Ctrl Pts',(1.96480768993539,49.6451343825231,1.55460333159274));
#301=CARTESIAN_POINT('Ctrl Pts',(2.07410282221982,49.6707803207499,1.40744693643993));
#302=CARTESIAN_POINT('Ctrl Pts',(2.25532427148995,49.670907039283,1.0937649778631));
#303=CARTESIAN_POINT('Ctrl Pts',(2.32726587461114,49.6445894953283,0.927248431286299));
#304=CARTESIAN_POINT('Ctrl Pts',(2.43200734362809,49.5369656053164,0.605584458054686));
#305=CARTESIAN_POINT('Ctrl Pts',(2.46960535454969,49.4297102544193,0.413587219517831));
#306=CARTESIAN_POINT('Ctrl Pts',(2.49621096535458,49.2218168843107,0.171397730482296));
#307=CARTESIAN_POINT('Ctrl Pts',(2.49999999999998,49.1171457081729,0.0777056719620311));
#308=CARTESIAN_POINT('Ctrl Pts',(2.49999999999998,49.,7.89299181569447E-15));
#309=CARTESIAN_POINT('',(-2.50000000000002,49.,6.93889390390723E-15));
#310=CARTESIAN_POINT('Ctrl Pts',(-2.50000000000002,49.,-2.8796409701215E-15));
#311=CARTESIAN_POINT('Ctrl Pts',(-2.50000000000002,49.1171457081729,0.0777056719620206));
#312=CARTESIAN_POINT('Ctrl Pts',(-2.49621096535462,49.2218168843107,0.171397730482296));
#313=CARTESIAN_POINT('Ctrl Pts',(-2.46960535454973,49.4297102544193,0.41358721951783));
#314=CARTESIAN_POINT('Ctrl Pts',(-2.43200734362812,49.5369656053164,0.605584458054685));
#315=CARTESIAN_POINT('Ctrl Pts',(-2.32726587461118,49.6445894953283,0.927248431286298));
#316=CARTESIAN_POINT('Ctrl Pts',(-2.25532427148999,49.670907039283,1.0937649778631));
#317=CARTESIAN_POINT('Ctrl Pts',(-2.07410282221986,49.6707803207499,1.40744693643993));
#318=CARTESIAN_POINT('Ctrl Pts',(-1.96480768993543,49.6451343825231,1.55460333159274));
#319=CARTESIAN_POINT('Ctrl Pts',(-1.61893245017806,49.5315710465564,1.93698279644254));
#320=CARTESIAN_POINT('Ctrl Pts',(-1.33077484340055,49.3905471090836,2.1442833666942));
#321=CARTESIAN_POINT('Ctrl Pts',(-0.858139072982659,49.1904513545459,2.35442613592639));
#322=CARTESIAN_POINT('Ctrl Pts',(-0.693888847942447,49.1261253102278,2.4080356099434));
#323=CARTESIAN_POINT('Ctrl Pts',(-0.354679132423308,49.0303808168916,2.48077868573213));
#324=CARTESIAN_POINT('Ctrl Pts',(-0.179446426508385,49.,2.5));
#325=CARTESIAN_POINT('Ctrl Pts',(-1.68788594212543E-14,49.,2.5));
#326=CARTESIAN_POINT('',(-1.74860126378462E-14,49.,-2.5));
#327=CARTESIAN_POINT('Ctrl Pts',(-1.71217207078911E-14,49.,-2.5));
#328=CARTESIAN_POINT('Ctrl Pts',(-0.179446426508388,49.,-2.5));
#329=CARTESIAN_POINT('Ctrl Pts',(-0.354679132423313,48.9696191831084,-2.48077868573213));
#330=CARTESIAN_POINT('Ctrl Pts',(-0.693888847942454,48.8738746897722,-2.4080356099434));
#331=CARTESIAN_POINT('Ctrl Pts',(-0.858139072982663,48.8095486454541,-2.35442613592639));
#332=CARTESIAN_POINT('Ctrl Pts',(-1.33077484340056,48.6094528909164,-2.14428336669419));
#333=CARTESIAN_POINT('Ctrl Pts',(-1.61893245017807,48.4684289534436,-1.93698279644254));
#334=CARTESIAN_POINT('Ctrl Pts',(-1.96480768993543,48.3548656174769,-1.55460333159274));
#335=CARTESIAN_POINT('Ctrl Pts',(-2.07410282221986,48.3292196792501,-1.40744693643993));
#336=CARTESIAN_POINT('Ctrl Pts',(-2.25532427148999,48.3290929607169,-1.09376497786309));
#337=CARTESIAN_POINT('Ctrl Pts',(-2.32726587461118,48.3554105046717,-0.92724843128629));
#338=CARTESIAN_POINT('Ctrl Pts',(-2.43200734362813,48.4630343946836,-0.605584458054675));
#339=CARTESIAN_POINT('Ctrl Pts',(-2.46960535454973,48.5702897455807,-0.413587219517819));
#340=CARTESIAN_POINT('Ctrl Pts',(-2.49621096535462,48.7781831156893,-0.171397730482289));
#341=CARTESIAN_POINT('Ctrl Pts',(-2.50000000000002,48.8828542918271,-0.0777056719620209));
#342=CARTESIAN_POINT('Ctrl Pts',(-2.50000000000002,49.,-6.24500451351651E-16));
#343=CARTESIAN_POINT('',(-1.04535791319947E-14,39.,-2.5));
#344=CARTESIAN_POINT('',(4.5653670047635E-15,19.,-2.5));
#345=CARTESIAN_POINT('Origin',(-2.22661124059885E-15,39.,0.));
#346=CARTESIAN_POINT('Ctrl Pts',(2.49999999999998,49.,7.80625564189563E-15));
#347=CARTESIAN_POINT('Ctrl Pts',(2.49999999999998,48.8828542918271,-0.0777056719620113));
#348=CARTESIAN_POINT('Ctrl Pts',(2.49621096535458,48.7781831156893,-0.171397730482288));
#349=CARTESIAN_POINT('Ctrl Pts',(2.46960535454969,48.5702897455807,-0.413587219517819));
#350=CARTESIAN_POINT('Ctrl Pts',(2.43200734362809,48.4630343946836,-0.605584458054675));
#351=CARTESIAN_POINT('Ctrl Pts',(2.32726587461114,48.3554105046717,-0.927248431286289));
#352=CARTESIAN_POINT('Ctrl Pts',(2.25532427148996,48.329092960717,-1.09376497786309));
#353=CARTESIAN_POINT('Ctrl Pts',(2.07410282221983,48.3292196792501,-1.40744693643993));
#354=CARTESIAN_POINT('Ctrl Pts',(1.9648076899354,48.3548656174769,-1.55460333159274));
#355=CARTESIAN_POINT('Ctrl Pts',(1.61893245017803,48.4684289534436,-1.93698279644254));
#356=CARTESIAN_POINT('Ctrl Pts',(1.33077484340052,48.6094528909164,-2.14428336669419));
#357=CARTESIAN_POINT('Ctrl Pts',(0.85813907298263,48.8095486454541,-2.35442613592639));
#358=CARTESIAN_POINT('Ctrl Pts',(0.69388884794242,48.8738746897722,-2.4080356099434));
#359=CARTESIAN_POINT('Ctrl Pts',(0.354679132423279,48.9696191831084,-2.48077868573213));
#360=CARTESIAN_POINT('Ctrl Pts',(0.179446426508353,49.,-2.5));
#361=CARTESIAN_POINT('Ctrl Pts',(-1.75900960464048E-14,49.,-2.5));
#362=CARTESIAN_POINT('Origin',(-2.50000000000002,49.8291561975888,-1.24999999999999));
#363=CARTESIAN_POINT('',(-2.50000000000002,49.,6.93889390390723E-15));
#364=CARTESIAN_POINT('Origin',(-2.50000000000002,48.1708438024111,1.25000000000001));
#365=CARTESIAN_POINT('Origin',(8.375,2.89745579674845E-15,0.));
#366=CARTESIAN_POINT('',(-9.,-4.44089209850063E-15,-1.10218211923262E-15));
#367=CARTESIAN_POINT('Origin',(0.,0.,0.));
#368=CARTESIAN_POINT('Origin',(8.29999999999998,33.,0.));
#369=CARTESIAN_POINT('',(8.49999999999999,33.,1.04091540074902E-15));
#370=CARTESIAN_POINT('Origin',(-1.81860049673382E-14,33.,0.));
#371=CARTESIAN_POINT('',(-8.25000000000001,33.,-1.01033360929657E-15));
#372=CARTESIAN_POINT('Origin',(-2.39314469429262E-15,33.,0.));
#373=CARTESIAN_POINT('Origin',(-9.0930024836691E-15,16.5,0.));
#374=CARTESIAN_POINT('',(-9.00000000000002,32.5,-1.10218211923262E-15));
#375=CARTESIAN_POINT('',(-9.00000000000001,16.5,-1.10218211923262E-15));
#376=CARTESIAN_POINT('',(8.99999999999998,32.5,-1.10214571844014E-15));
#377=CARTESIAN_POINT('Origin',(-1.791045943753E-14,32.5,0.));
#378=CARTESIAN_POINT('Origin',(-1.791045943753E-14,32.5,0.));
#379=CARTESIAN_POINT('Origin',(-1.80482322024341E-14,32.75,0.));
#380=CARTESIAN_POINT('',(8.74999999999999,32.75,1.07156594925393E-15));
#381=CARTESIAN_POINT('Origin',(-2.37926690648481E-15,33.5,0.));
#382=CARTESIAN_POINT('',(-8.25000000000001,34.,-1.01033360929657E-15));
#383=CARTESIAN_POINT('',(-8.25000000000001,33.5,-1.01033360929657E-15));
#384=CARTESIAN_POINT('Origin',(-2.36538911867699E-15,34.,0.));
#385=CARTESIAN_POINT('Origin',(5.825,34.,0.));
#386=CARTESIAN_POINT('',(-3.4,34.,-4.163799117101E-16));
#387=CARTESIAN_POINT('Origin',(-2.36538911867699E-15,34.,0.));
#388=CARTESIAN_POINT('Origin',(-2.29600017963792E-15,36.5,0.));
#389=CARTESIAN_POINT('',(-3.4,38.5,-4.163799117101E-16));
#390=CARTESIAN_POINT('',(-3.4,36.5,-4.163799117101E-16));
#391=CARTESIAN_POINT('',(3.4,38.5,-4.163799117101E-16));
#392=CARTESIAN_POINT('Origin',(-2.24048902840666E-15,38.5,0.));
#393=CARTESIAN_POINT('Origin',(-2.24048902840666E-15,38.5,0.));
#394=CARTESIAN_POINT('Origin',(2.95,39.,0.));
#395=CARTESIAN_POINT('',(2.9,39.,3.55147571752732E-16));
#396=CARTESIAN_POINT('Origin',(-2.22661124059885E-15,39.,0.));
#397=CARTESIAN_POINT('Origin',(-2.23355013450276E-15,38.75,0.));
#398=CARTESIAN_POINT('',(3.15,38.75,3.85763741731416E-16));
#399=UNCERTAINTY_MEASURE_WITH_UNIT(LENGTH_MEASURE(0.01),#403,
'DISTANCE_ACCURACY_VALUE',
'Maximum model space distance between geometric entities at asserted c
onnectivities');
#400=UNCERTAINTY_MEASURE_WITH_UNIT(LENGTH_MEASURE(0.01),#403,
'DISTANCE_ACCURACY_VALUE',
'Maximum model space distance between geometric entities at asserted c
onnectivities');
#401=(
GEOMETRIC_REPRESENTATION_CONTEXT(3)
GLOBAL_UNCERTAINTY_ASSIGNED_CONTEXT((#399))
GLOBAL_UNIT_ASSIGNED_CONTEXT((#403,#405,#406))
REPRESENTATION_CONTEXT('','3D')
);
#402=(
GEOMETRIC_REPRESENTATION_CONTEXT(3)
GLOBAL_UNCERTAINTY_ASSIGNED_CONTEXT((#400))
GLOBAL_UNIT_ASSIGNED_CONTEXT((#403,#405,#406))
REPRESENTATION_CONTEXT('','3D')
);
#403=(
LENGTH_UNIT()
NAMED_UNIT(*)
SI_UNIT(.MILLI.,.METRE.)
);
#404=(
LENGTH_UNIT()
NAMED_UNIT(*)
SI_UNIT(.CENTI.,.METRE.)
);
#405=(
NAMED_UNIT(*)
PLANE_ANGLE_UNIT()
SI_UNIT($,.RADIAN.)
);
#406=(
NAMED_UNIT(*)
SI_UNIT($,.STERADIAN.)
SOLID_ANGLE_UNIT()
);
#407=SHAPE_DEFINITION_REPRESENTATION(#408,#409);
#408=PRODUCT_DEFINITION_SHAPE('',$,#411);
#409=SHAPE_REPRESENTATION('',(#210),#401);
#410=PRODUCT_DEFINITION_CONTEXT('part definition',#415,'design');
#411=PRODUCT_DEFINITION('IA0092_Shrinkwrap_1','IA0092_Shrinkwrap_1',#412,
#410);
#412=PRODUCT_DEFINITION_FORMATION('',$,#417);
#413=PRODUCT_RELATED_PRODUCT_CATEGORY('IA0092_Shrinkwrap_1',
'IA0092_Shrinkwrap_1',(#417));
#414=APPLICATION_PROTOCOL_DEFINITION('international standard',
'automotive_design',2009,#415);
#415=APPLICATION_CONTEXT(
'Core Data for Automotive Mechanical Design Process');
#416=PRODUCT_CONTEXT('part definition',#415,'mechanical');
#417=PRODUCT('IA0092_Shrinkwrap_1','IA0092_Shrinkwrap_1',$,(#416));
#418=PRESENTATION_STYLE_ASSIGNMENT((#423));
#419=PRESENTATION_STYLE_ASSIGNMENT((#424));
#420=PRESENTATION_STYLE_ASSIGNMENT((#425));
#421=PRESENTATION_STYLE_ASSIGNMENT((#426));
#422=PRESENTATION_STYLE_ASSIGNMENT((#427));
#423=SURFACE_STYLE_USAGE(.BOTH.,#438);
#424=SURFACE_STYLE_USAGE(.BOTH.,#439);
#425=SURFACE_STYLE_USAGE(.BOTH.,#440);
#426=SURFACE_STYLE_USAGE(.BOTH.,#441);
#427=SURFACE_STYLE_USAGE(.BOTH.,#442);
#428=SURFACE_STYLE_RENDERING_WITH_PROPERTIES($,#458,(#433));
#429=SURFACE_STYLE_RENDERING_WITH_PROPERTIES($,#459,(#434));
#430=SURFACE_STYLE_RENDERING_WITH_PROPERTIES($,#460,(#435));
#431=SURFACE_STYLE_RENDERING_WITH_PROPERTIES($,#461,(#436));
#432=SURFACE_STYLE_RENDERING_WITH_PROPERTIES($,#462,(#437));
#433=SURFACE_STYLE_TRANSPARENT(0.);
#434=SURFACE_STYLE_TRANSPARENT(0.);
#435=SURFACE_STYLE_TRANSPARENT(0.);
#436=SURFACE_STYLE_TRANSPARENT(0.);
#437=SURFACE_STYLE_TRANSPARENT(0.420000016689301);
#438=SURFACE_SIDE_STYLE('',(#443,#428));
#439=SURFACE_SIDE_STYLE('',(#444,#429));
#440=SURFACE_SIDE_STYLE('',(#445,#430));
#441=SURFACE_SIDE_STYLE('',(#446,#431));
#442=SURFACE_SIDE_STYLE('',(#447,#432));
#443=SURFACE_STYLE_FILL_AREA(#448);
#444=SURFACE_STYLE_FILL_AREA(#449);
#445=SURFACE_STYLE_FILL_AREA(#450);
#446=SURFACE_STYLE_FILL_AREA(#451);
#447=SURFACE_STYLE_FILL_AREA(#452);
#448=FILL_AREA_STYLE('',(#453));
#449=FILL_AREA_STYLE('',(#454));
#450=FILL_AREA_STYLE('',(#455));
#451=FILL_AREA_STYLE('',(#456));
#452=FILL_AREA_STYLE('',(#457));
#453=FILL_AREA_STYLE_COLOUR('',#458);
#454=FILL_AREA_STYLE_COLOUR('',#459);
#455=FILL_AREA_STYLE_COLOUR('',#460);
#456=FILL_AREA_STYLE_COLOUR('',#461);
#457=FILL_AREA_STYLE_COLOUR('',#462);
#458=COLOUR_RGB('',0.749019607843137,0.749019607843137,0.749019607843137);
#459=COLOUR_RGB('',0.0941176470588235,0.145098039215686,0.972549019607843);
#460=COLOUR_RGB('',0.945098039215686,0.949019607843137,0.972549019607843);
#461=COLOUR_RGB('',0.419607843137255,0.423529411764706,0.368627450980392);
#462=COLOUR_RGB('',0.8,0.8,0.8);
ENDSEC;
END-ISO-10303-21;
