ISO-10303-21;
HEADER;
/* Generated by software containing ST-Developer
 * from STEP Tools, Inc. (www.steptools.com) 
 */

FILE_DESCRIPTION(
/* description */ (''),
/* implementation_level */ '2;1');

FILE_NAME(
/* name */ 
'E:\\Allgemein\\Inventor Pojekte\\Ger\X\E4te\\IA0028_Shrinkwrap_1.stp',

/* time_stamp */ '2021-12-06T14:20:24+01:00',
/* author */ ('Krieger Anja'),
/* organization */ (''),
/* preprocessor_version */ 'ST-DEVELOPER v18.1',
/* originating_system */ 'Autodesk Inventor 2021',
/* authorisation */ '');

FILE_SCHEMA (('AUTOMOTIVE_DESIGN { 1 0 10303 214 3 1 1 }'));
ENDSEC;

DATA;
#10=MECHANICAL_DESIGN_GEOMETRIC_PRESENTATION_REPRESENTATION('',(#122,#123,
#124,#125,#126,#127,#128,#129,#130,#131),#314);
#11=SHAPE_REPRESENTATION_RELATIONSHIP('SRR','None',#321,#12);
#12=ADVANCED_BREP_SHAPE_REPRESENTATION('',(#13),#313);
#13=MANIFOLD_SOLID_BREP('Volumenk\X\F6rper1',#141);
#14=SPHERICAL_SURFACE('',#175,1.5);
#15=B_SPLINE_CURVE_WITH_KNOTS('',3,(#238,#239,#240,#241,#242,#243,#244,
#245,#246,#247,#248,#249,#250,#251,#252,#253),.UNSPECIFIED.,.F.,.F.,(4,
2,2,2,2,2,2,4),(0.391534172365443,0.433683480731259,0.475832789097076,0.56013140582871,
0.599984223474009,0.639837041119308,0.684024164303501,0.711313695225399),
 .UNSPECIFIED.);
#16=B_SPLINE_CURVE_WITH_KNOTS('',3,(#256,#257,#258,#259,#260,#261,#262,
#263,#264,#265,#266,#267,#268,#269,#270,#271),.UNSPECIFIED.,.F.,.F.,(4,
2,2,2,2,2,2,4),(0.0717546495054865,0.0990441804273839,0.143231303611577,
0.183084121256876,0.222936938902175,0.307235555633809,0.349384863999626,
0.391534172365443),.UNSPECIFIED.);
#17=B_SPLINE_CURVE_WITH_KNOTS('',3,(#274,#275,#276,#277,#278,#279,#280,
#281,#282,#283,#284,#285,#286,#287,#288,#289),.UNSPECIFIED.,.F.,.F.,(4,
2,2,2,2,2,2,4),(0.854822994236371,0.882112525158268,0.926299648342461,0.966152465987761,
1.00600528363306,1.09030390036469,1.13245320873051,1.17460251709633),
 .UNSPECIFIED.);
#18=B_SPLINE_CURVE_WITH_KNOTS('',3,(#290,#291,#292,#293,#294,#295,#296,
#297,#298,#299,#300,#301,#302,#303,#304,#305),.UNSPECIFIED.,.F.,.F.,(4,
2,2,2,2,2,2,4),(1.17460251709633,1.21675182546214,1.25890113382796,1.34319975055959,
1.38305256820489,1.42290538585019,1.46709250903439,1.49438203995628),
 .UNSPECIFIED.);
#19=FACE_BOUND('',#47,.T.);
#20=FACE_BOUND('',#49,.T.);
#21=FACE_BOUND('',#50,.T.);
#22=LINE('',#221,#26);
#23=LINE('',#234,#27);
#24=LINE('',#255,#28);
#25=LINE('',#307,#29);
#26=VECTOR('',#185,5.5);
#27=VECTOR('',#202,5.35);
#28=VECTOR('',#205,10.);
#29=VECTOR('',#210,1.95);
#30=CYLINDRICAL_SURFACE('',#163,5.5);
#31=CYLINDRICAL_SURFACE('',#171,5.35);
#32=CYLINDRICAL_SURFACE('',#172,1.2);
#33=CYLINDRICAL_SURFACE('',#173,1.2);
#34=CYLINDRICAL_SURFACE('',#174,1.95);
#35=FACE_OUTER_BOUND('',#44,.T.);
#36=FACE_OUTER_BOUND('',#45,.T.);
#37=FACE_OUTER_BOUND('',#46,.T.);
#38=FACE_OUTER_BOUND('',#48,.T.);
#39=FACE_OUTER_BOUND('',#51,.T.);
#40=FACE_OUTER_BOUND('',#52,.T.);
#41=FACE_OUTER_BOUND('',#53,.T.);
#42=FACE_OUTER_BOUND('',#54,.T.);
#43=FACE_OUTER_BOUND('',#55,.T.);
#44=EDGE_LOOP('',(#89));
#45=EDGE_LOOP('',(#90,#91,#92,#93));
#46=EDGE_LOOP('',(#94));
#47=EDGE_LOOP('',(#95));
#48=EDGE_LOOP('',(#96));
#49=EDGE_LOOP('',(#97));
#50=EDGE_LOOP('',(#98));
#51=EDGE_LOOP('',(#99,#100,#101,#102));
#52=EDGE_LOOP('',(#103,#104,#105));
#53=EDGE_LOOP('',(#106,#107,#108));
#54=EDGE_LOOP('',(#109,#110,#111,#112,#113,#114,#115));
#55=EDGE_LOOP('',(#116,#117,#118));
#56=CIRCLE('',#162,5.5);
#57=CIRCLE('',#164,5.50000000000001);
#58=CIRCLE('',#166,5.35);
#59=CIRCLE('',#168,5.35);
#60=CIRCLE('',#169,1.95);
#61=CIRCLE('',#170,1.5);
#62=CIRCLE('',#176,1.5);
#63=VERTEX_POINT('',#217);
#64=VERTEX_POINT('',#220);
#65=VERTEX_POINT('',#224);
#66=VERTEX_POINT('',#227);
#67=VERTEX_POINT('',#229);
#68=VERTEX_POINT('',#231);
#69=VERTEX_POINT('',#236);
#70=VERTEX_POINT('',#237);
#71=VERTEX_POINT('',#254);
#72=VERTEX_POINT('',#273);
#73=VERTEX_POINT('',#309);
#74=EDGE_CURVE('',#63,#63,#56,.T.);
#75=EDGE_CURVE('',#63,#64,#22,.T.);
#76=EDGE_CURVE('',#64,#64,#57,.T.);
#77=EDGE_CURVE('',#65,#65,#58,.T.);
#78=EDGE_CURVE('',#66,#66,#59,.T.);
#79=EDGE_CURVE('',#67,#67,#60,.T.);
#80=EDGE_CURVE('',#68,#68,#61,.T.);
#81=EDGE_CURVE('',#65,#66,#23,.T.);
#82=EDGE_CURVE('',#69,#70,#15,.T.);
#83=EDGE_CURVE('',#70,#71,#24,.T.);
#84=EDGE_CURVE('',#71,#69,#16,.T.);
#85=EDGE_CURVE('',#70,#72,#17,.T.);
#86=EDGE_CURVE('',#72,#71,#18,.T.);
#87=EDGE_CURVE('',#69,#67,#25,.T.);
#88=EDGE_CURVE('',#73,#68,#62,.T.);
#89=ORIENTED_EDGE('',*,*,#74,.T.);
#90=ORIENTED_EDGE('',*,*,#74,.F.);
#91=ORIENTED_EDGE('',*,*,#75,.T.);
#92=ORIENTED_EDGE('',*,*,#76,.T.);
#93=ORIENTED_EDGE('',*,*,#75,.F.);
#94=ORIENTED_EDGE('',*,*,#76,.F.);
#95=ORIENTED_EDGE('',*,*,#77,.T.);
#96=ORIENTED_EDGE('',*,*,#78,.F.);
#97=ORIENTED_EDGE('',*,*,#79,.T.);
#98=ORIENTED_EDGE('',*,*,#80,.T.);
#99=ORIENTED_EDGE('',*,*,#77,.F.);
#100=ORIENTED_EDGE('',*,*,#81,.T.);
#101=ORIENTED_EDGE('',*,*,#78,.T.);
#102=ORIENTED_EDGE('',*,*,#81,.F.);
#103=ORIENTED_EDGE('',*,*,#82,.T.);
#104=ORIENTED_EDGE('',*,*,#83,.T.);
#105=ORIENTED_EDGE('',*,*,#84,.T.);
#106=ORIENTED_EDGE('',*,*,#85,.T.);
#107=ORIENTED_EDGE('',*,*,#86,.T.);
#108=ORIENTED_EDGE('',*,*,#83,.F.);
#109=ORIENTED_EDGE('',*,*,#82,.F.);
#110=ORIENTED_EDGE('',*,*,#87,.T.);
#111=ORIENTED_EDGE('',*,*,#79,.F.);
#112=ORIENTED_EDGE('',*,*,#87,.F.);
#113=ORIENTED_EDGE('',*,*,#84,.F.);
#114=ORIENTED_EDGE('',*,*,#86,.F.);
#115=ORIENTED_EDGE('',*,*,#85,.F.);
#116=ORIENTED_EDGE('',*,*,#80,.F.);
#117=ORIENTED_EDGE('',*,*,#88,.F.);
#118=ORIENTED_EDGE('',*,*,#88,.T.);
#119=PLANE('',#161);
#120=PLANE('',#165);
#121=PLANE('',#167);
#122=STYLED_ITEM('',(#331),#132);
#123=STYLED_ITEM('',(#331),#133);
#124=STYLED_ITEM('',(#331),#134);
#125=STYLED_ITEM('',(#332),#135);
#126=STYLED_ITEM('',(#332),#136);
#127=STYLED_ITEM('',(#332),#137);
#128=STYLED_ITEM('',(#332),#138);
#129=STYLED_ITEM('',(#332),#139);
#130=STYLED_ITEM('',(#333),#140);
#131=STYLED_ITEM('',(#330),#13);
#132=ADVANCED_FACE('',(#35),#119,.T.);
#133=ADVANCED_FACE('',(#36),#30,.T.);
#134=ADVANCED_FACE('',(#37,#19),#120,.T.);
#135=ADVANCED_FACE('',(#38,#20,#21),#121,.T.);
#136=ADVANCED_FACE('',(#39),#31,.T.);
#137=ADVANCED_FACE('',(#40),#32,.F.);
#138=ADVANCED_FACE('',(#41),#33,.T.);
#139=ADVANCED_FACE('',(#42),#34,.T.);
#140=ADVANCED_FACE('',(#43),#14,.T.);
#141=CLOSED_SHELL('',(#132,#133,#134,#135,#136,#137,#138,#139,#140));
#142=DERIVED_UNIT_ELEMENT(#144,1.);
#143=DERIVED_UNIT_ELEMENT(#316,3.);
#144=(
MASS_UNIT()
NAMED_UNIT(*)
SI_UNIT($,.GRAM.)
);
#145=DERIVED_UNIT((#142,#143));
#146=MEASURE_REPRESENTATION_ITEM('density measure',
POSITIVE_RATIO_MEASURE(1.),#145);
#147=PROPERTY_DEFINITION_REPRESENTATION(#152,#149);
#148=PROPERTY_DEFINITION_REPRESENTATION(#153,#150);
#149=REPRESENTATION('material name',(#151),#313);
#150=REPRESENTATION('density',(#146),#313);
#151=DESCRIPTIVE_REPRESENTATION_ITEM('Allgemein','Allgemein');
#152=PROPERTY_DEFINITION('material property','material name',#323);
#153=PROPERTY_DEFINITION('material property','density of part',#323);
#154=DATE_TIME_ROLE('creation_date');
#155=APPLIED_DATE_AND_TIME_ASSIGNMENT(#156,#154,(#323));
#156=DATE_AND_TIME(#157,#158);
#157=CALENDAR_DATE(2021,6,12);
#158=LOCAL_TIME(0,0,0.,#159);
#159=COORDINATED_UNIVERSAL_TIME_OFFSET(0,0,.BEHIND.);
#160=AXIS2_PLACEMENT_3D('placement',#215,#177,#178);
#161=AXIS2_PLACEMENT_3D('',#216,#179,#180);
#162=AXIS2_PLACEMENT_3D('',#218,#181,#182);
#163=AXIS2_PLACEMENT_3D('',#219,#183,#184);
#164=AXIS2_PLACEMENT_3D('',#222,#186,#187);
#165=AXIS2_PLACEMENT_3D('',#223,#188,#189);
#166=AXIS2_PLACEMENT_3D('',#225,#190,#191);
#167=AXIS2_PLACEMENT_3D('',#226,#192,#193);
#168=AXIS2_PLACEMENT_3D('',#228,#194,#195);
#169=AXIS2_PLACEMENT_3D('',#230,#196,#197);
#170=AXIS2_PLACEMENT_3D('',#232,#198,#199);
#171=AXIS2_PLACEMENT_3D('',#233,#200,#201);
#172=AXIS2_PLACEMENT_3D('',#235,#203,#204);
#173=AXIS2_PLACEMENT_3D('',#272,#206,#207);
#174=AXIS2_PLACEMENT_3D('',#306,#208,#209);
#175=AXIS2_PLACEMENT_3D('',#308,#211,#212);
#176=AXIS2_PLACEMENT_3D('',#310,#213,#214);
#177=DIRECTION('axis',(0.,0.,1.));
#178=DIRECTION('refdir',(1.,0.,0.));
#179=DIRECTION('center_axis',(3.06161699786838E-16,-1.,0.));
#180=DIRECTION('ref_axis',(0.,0.,-1.));
#181=DIRECTION('center_axis',(3.06161699786838E-16,-1.,0.));
#182=DIRECTION('ref_axis',(1.,0.,0.));
#183=DIRECTION('center_axis',(3.06161699786838E-16,-1.,0.));
#184=DIRECTION('ref_axis',(1.,0.,0.));
#185=DIRECTION('',(-3.06161699786838E-16,1.,0.));
#186=DIRECTION('center_axis',(3.06161699786838E-16,-1.,0.));
#187=DIRECTION('ref_axis',(1.,0.,0.));
#188=DIRECTION('center_axis',(-3.06161699786838E-16,1.,0.));
#189=DIRECTION('ref_axis',(0.,0.,1.));
#190=DIRECTION('center_axis',(3.06161699786838E-16,-1.,0.));
#191=DIRECTION('ref_axis',(6.12323399573677E-17,4.60783239030965E-32,-1.));
#192=DIRECTION('center_axis',(-1.83978952515249E-17,1.,-2.40768643653513E-17));
#193=DIRECTION('ref_axis',(1.,1.83978952515249E-17,6.12323399573677E-17));
#194=DIRECTION('center_axis',(1.83978952515249E-17,-1.,2.40768643653513E-17));
#195=DIRECTION('ref_axis',(6.12323399573677E-17,4.60783239030965E-32,-1.));
#196=DIRECTION('center_axis',(1.83978952515249E-17,-1.,2.40768643653513E-17));
#197=DIRECTION('ref_axis',(-1.,-1.21430643318376E-16,2.5230116427712E-32));
#198=DIRECTION('center_axis',(1.83978952515249E-17,-1.,2.40768643653513E-17));
#199=DIRECTION('ref_axis',(-6.12323399573677E-17,2.27367134665948E-17,1.));
#200=DIRECTION('center_axis',(1.83978952515249E-17,-1.,2.40768643653513E-17));
#201=DIRECTION('ref_axis',(6.12323399573677E-17,4.60783239030965E-32,-1.));
#202=DIRECTION('',(-1.83978952515249E-17,1.,-2.40768643653513E-17));
#203=DIRECTION('center_axis',(8.79501065606111E-50,2.07773884237454E-16,
1.));
#204=DIRECTION('ref_axis',(-0.812499999999998,-0.582961190818054,1.21124110975959E-16));
#205=DIRECTION('',(8.79501065606111E-50,2.07773884237454E-16,1.));
#206=DIRECTION('center_axis',(8.79501065606111E-50,2.07773884237454E-16,
1.));
#207=DIRECTION('ref_axis',(-0.8125,-0.582961190818051,1.21124110975958E-16));
#208=DIRECTION('center_axis',(-1.21430643318376E-16,1.,-2.07773884237454E-16));
#209=DIRECTION('ref_axis',(-1.,-1.21430643318376E-16,2.5230116427712E-32));
#210=DIRECTION('',(1.21430643318376E-16,-1.,2.07773884237454E-16));
#211=DIRECTION('center_axis',(0.,1.,0.));
#212=DIRECTION('ref_axis',(0.,0.,-1.));
#213=DIRECTION('center_axis',(1.,0.,-1.22464679914736E-16));
#214=DIRECTION('ref_axis',(1.22464679914736E-16,0.,1.));
#215=CARTESIAN_POINT('',(0.,0.,0.));
#216=CARTESIAN_POINT('Origin',(2.75,0.,0.));
#217=CARTESIAN_POINT('',(-5.5,0.,-6.73555739531045E-16));
#218=CARTESIAN_POINT('Origin',(5.15542425290013E-31,-1.68388934882761E-15,
0.));
#219=CARTESIAN_POINT('Origin',(-7.42442121983083E-15,24.25,0.));
#220=CARTESIAN_POINT('',(-5.50000000000002,48.5,-6.73555739531045E-16));
#221=CARTESIAN_POINT('',(-5.50000000000001,24.25,-6.73555739531045E-16));
#222=CARTESIAN_POINT('Origin',(-1.48488424396617E-14,48.5,0.));
#223=CARTESIAN_POINT('Origin',(5.19999999999999,48.5,0.));
#224=CARTESIAN_POINT('',(-1.67239194156764E-14,48.5,5.35));
#225=CARTESIAN_POINT('Origin',(-1.57411403593606E-14,48.5,-2.87541340697014E-30));
#226=CARTESIAN_POINT('Origin',(-1.55957417452262E-14,49.5,-2.675));
#227=CARTESIAN_POINT('',(-1.67423173109279E-14,49.5,5.35));
#228=CARTESIAN_POINT('Origin',(-1.57595382546121E-14,49.5,-2.40768643653541E-17));
#229=CARTESIAN_POINT('',(1.94999999999998,49.5,-1.85));
#230=CARTESIAN_POINT('Origin',(-2.06952510684033E-14,49.5,-1.85));
#231=CARTESIAN_POINT('',(5.43011279161298E-14,49.5,3.85));
#232=CARTESIAN_POINT('Origin',(-1.5903434253512E-14,49.5,2.35));
#233=CARTESIAN_POINT('Origin',(-1.57503393069864E-14,49.,-1.20384321826785E-17));
#234=CARTESIAN_POINT('',(-1.67331183633021E-14,49.,5.35));
#235=CARTESIAN_POINT('Origin',(0.974999999999976,65.1995534289817,-3.8));
#236=CARTESIAN_POINT('',(1.94999999999998,64.5,-1.85));
#237=CARTESIAN_POINT('',(-2.24820162486594E-14,64.5,-3.8));
#238=CARTESIAN_POINT('Ctrl Pts',(1.94999999999998,64.5,-1.85));
#239=CARTESIAN_POINT('Ctrl Pts',(1.94999999999998,64.5,-1.99049769455273));
#240=CARTESIAN_POINT('Ctrl Pts',(1.93484062491237,64.4778680592345,-2.12851784549624));
#241=CARTESIAN_POINT('Ctrl Pts',(1.87701758513309,64.4068133897615,-2.39594382769272));
#242=CARTESIAN_POINT('Ctrl Pts',(1.83429909817718,64.3585791368793,-2.52552025906705));
#243=CARTESIAN_POINT('Ctrl Pts',(1.66708295206203,64.2078123526801,-2.89750209821939));
#244=CARTESIAN_POINT('Ctrl Pts',(1.50232102747291,64.1007293531221,-3.123270489983));
#245=CARTESIAN_POINT('Ctrl Pts',(1.19974326967509,64.0164829999208,-3.39273521410389));
#246=CARTESIAN_POINT('Ctrl Pts',(1.08318941382123,63.9980335797458,-3.47771450393266));
#247=CARTESIAN_POINT('Ctrl Pts',(0.835380899812399,64.0012790839553,-3.61773656354624));
#248=CARTESIAN_POINT('Ctrl Pts',(0.704146648017834,64.0236032937966,-3.67280015368417));
#249=CARTESIAN_POINT('Ctrl Pts',(0.450253860018912,64.1111684949073,-3.75245793231783));
#250=CARTESIAN_POINT('Ctrl Pts',(0.298569261383531,64.1975449603363,-3.78022335040471));
#251=CARTESIAN_POINT('Ctrl Pts',(0.119236675972436,64.3534447247356,-3.7975662761169));
#252=CARTESIAN_POINT('Ctrl Pts',(0.0553112980559995,64.4229100832468,-3.8));
#253=CARTESIAN_POINT('Ctrl Pts',(-2.30317067501096E-14,64.5,-3.8));
#254=CARTESIAN_POINT('',(-2.24820162486594E-14,64.5,0.0999999999999962));
#255=CARTESIAN_POINT('',(-2.24820162486594E-14,64.5,-3.8));
#256=CARTESIAN_POINT('Ctrl Pts',(-2.30317067501096E-14,64.5,0.0999999999999962));
#257=CARTESIAN_POINT('Ctrl Pts',(0.055311298055999,64.4229100832468,0.0999999999999962));
#258=CARTESIAN_POINT('Ctrl Pts',(0.119236675972436,64.3534447247356,0.0975662761168922));
#259=CARTESIAN_POINT('Ctrl Pts',(0.298569261383531,64.1975449603363,0.080223350404699));
#260=CARTESIAN_POINT('Ctrl Pts',(0.450253860018911,64.1111684949073,0.0524579323178209));
#261=CARTESIAN_POINT('Ctrl Pts',(0.704146648017833,64.0236032937966,-0.0271998463158402));
#262=CARTESIAN_POINT('Ctrl Pts',(0.835380899812399,64.0012790839553,-0.082263436453765));
#263=CARTESIAN_POINT('Ctrl Pts',(1.08318941382123,63.9980335797458,-0.222285496067344));
#264=CARTESIAN_POINT('Ctrl Pts',(1.19974326967509,64.0164829999208,-0.307264785896116));
#265=CARTESIAN_POINT('Ctrl Pts',(1.50232102747291,64.1007293531221,-0.576729510017012));
#266=CARTESIAN_POINT('Ctrl Pts',(1.66708295206203,64.2078123526801,-0.802497901780618));
#267=CARTESIAN_POINT('Ctrl Pts',(1.83429909817718,64.3585791368793,-1.17447974093296));
#268=CARTESIAN_POINT('Ctrl Pts',(1.87701758513309,64.4068133897615,-1.30405617230729));
#269=CARTESIAN_POINT('Ctrl Pts',(1.93484062491237,64.4778680592345,-1.57148215450376));
#270=CARTESIAN_POINT('Ctrl Pts',(1.94999999999998,64.5,-1.70950230544728));
#271=CARTESIAN_POINT('Ctrl Pts',(1.94999999999998,64.5,-1.85));
#272=CARTESIAN_POINT('Origin',(-0.975000000000022,63.8004465710183,-3.8));
#273=CARTESIAN_POINT('',(-1.95000000000002,64.5,-1.85));
#274=CARTESIAN_POINT('Ctrl Pts',(-2.22071709979343E-14,64.5,-3.8));
#275=CARTESIAN_POINT('Ctrl Pts',(-0.0553112980560441,64.5770899167532,-3.8));
#276=CARTESIAN_POINT('Ctrl Pts',(-0.11923667597248,64.6465552752644,-3.7975662761169));
#277=CARTESIAN_POINT('Ctrl Pts',(-0.298569261383576,64.8024550396637,-3.78022335040471));
#278=CARTESIAN_POINT('Ctrl Pts',(-0.450253860018957,64.8888315050927,-3.75245793231783));
#279=CARTESIAN_POINT('Ctrl Pts',(-0.704146648017878,64.9763967062034,-3.67280015368417));
#280=CARTESIAN_POINT('Ctrl Pts',(-0.835380899812444,64.9987209160447,-3.61773656354624));
#281=CARTESIAN_POINT('Ctrl Pts',(-1.08318941382127,65.0019664202542,-3.47771450393266));
#282=CARTESIAN_POINT('Ctrl Pts',(-1.19974326967514,64.9835170000792,-3.39273521410389));
#283=CARTESIAN_POINT('Ctrl Pts',(-1.50232102747295,64.899270646878,-3.123270489983));
#284=CARTESIAN_POINT('Ctrl Pts',(-1.66708295206207,64.7921876473199,-2.89750209821939));
#285=CARTESIAN_POINT('Ctrl Pts',(-1.83429909817722,64.6414208631208,-2.52552025906705));
#286=CARTESIAN_POINT('Ctrl Pts',(-1.87701758513313,64.5931866102385,-2.39594382769272));
#287=CARTESIAN_POINT('Ctrl Pts',(-1.93484062491241,64.5221319407655,-2.12851784549624));
#288=CARTESIAN_POINT('Ctrl Pts',(-1.95000000000002,64.5,-1.99049769455273));
#289=CARTESIAN_POINT('Ctrl Pts',(-1.95000000000002,64.5,-1.85));
#290=CARTESIAN_POINT('Ctrl Pts',(-1.95000000000002,64.5,-1.85));
#291=CARTESIAN_POINT('Ctrl Pts',(-1.95000000000002,64.5,-1.70950230544728));
#292=CARTESIAN_POINT('Ctrl Pts',(-1.93484062491241,64.5221319407655,-1.57148215450376));
#293=CARTESIAN_POINT('Ctrl Pts',(-1.87701758513313,64.5931866102385,-1.30405617230728));
#294=CARTESIAN_POINT('Ctrl Pts',(-1.83429909817723,64.6414208631208,-1.17447974093296));
#295=CARTESIAN_POINT('Ctrl Pts',(-1.66708295206207,64.7921876473199,-0.802497901780614));
#296=CARTESIAN_POINT('Ctrl Pts',(-1.50232102747295,64.899270646878,-0.576729510017012));
#297=CARTESIAN_POINT('Ctrl Pts',(-1.19974326967514,64.9835170000792,-0.307264785896116));
#298=CARTESIAN_POINT('Ctrl Pts',(-1.08318941382127,65.0019664202542,-0.222285496067344));
#299=CARTESIAN_POINT('Ctrl Pts',(-0.835380899812444,64.9987209160447,-0.0822634364537655));
#300=CARTESIAN_POINT('Ctrl Pts',(-0.704146648017878,64.9763967062034,-0.0271998463158402));
#301=CARTESIAN_POINT('Ctrl Pts',(-0.450253860018957,64.8888315050927,0.0524579323178209));
#302=CARTESIAN_POINT('Ctrl Pts',(-0.298569261383576,64.8024550396637,0.080223350404699));
#303=CARTESIAN_POINT('Ctrl Pts',(-0.119236675972481,64.6465552752644,0.0975662761168927));
#304=CARTESIAN_POINT('Ctrl Pts',(-0.055311298056044,64.5770899167532,0.0999999999999962));
#305=CARTESIAN_POINT('Ctrl Pts',(-2.22071709979343E-14,64.5,0.0999999999999962));
#306=CARTESIAN_POINT('Origin',(-1.88737914186277E-14,34.5,-1.85));
#307=CARTESIAN_POINT('',(1.94999999999998,34.5,-1.85));
#308=CARTESIAN_POINT('Origin',(5.41174308962577E-14,49.5,2.35));
#309=CARTESIAN_POINT('',(5.41174308962577E-14,51.,2.35));
#310=CARTESIAN_POINT('Origin',(5.41174308962577E-14,49.5,2.35));
#311=UNCERTAINTY_MEASURE_WITH_UNIT(LENGTH_MEASURE(0.01),#315,
'DISTANCE_ACCURACY_VALUE',
'Maximum model space distance between geometric entities at asserted c
onnectivities');
#312=UNCERTAINTY_MEASURE_WITH_UNIT(LENGTH_MEASURE(0.01),#315,
'DISTANCE_ACCURACY_VALUE',
'Maximum model space distance between geometric entities at asserted c
onnectivities');
#313=(
GEOMETRIC_REPRESENTATION_CONTEXT(3)
GLOBAL_UNCERTAINTY_ASSIGNED_CONTEXT((#311))
GLOBAL_UNIT_ASSIGNED_CONTEXT((#315,#317,#318))
REPRESENTATION_CONTEXT('','3D')
);
#314=(
GEOMETRIC_REPRESENTATION_CONTEXT(3)
GLOBAL_UNCERTAINTY_ASSIGNED_CONTEXT((#312))
GLOBAL_UNIT_ASSIGNED_CONTEXT((#315,#317,#318))
REPRESENTATION_CONTEXT('','3D')
);
#315=(
LENGTH_UNIT()
NAMED_UNIT(*)
SI_UNIT(.MILLI.,.METRE.)
);
#316=(
LENGTH_UNIT()
NAMED_UNIT(*)
SI_UNIT(.CENTI.,.METRE.)
);
#317=(
NAMED_UNIT(*)
PLANE_ANGLE_UNIT()
SI_UNIT($,.RADIAN.)
);
#318=(
NAMED_UNIT(*)
SI_UNIT($,.STERADIAN.)
SOLID_ANGLE_UNIT()
);
#319=SHAPE_DEFINITION_REPRESENTATION(#320,#321);
#320=PRODUCT_DEFINITION_SHAPE('',$,#323);
#321=SHAPE_REPRESENTATION('',(#160),#313);
#322=PRODUCT_DEFINITION_CONTEXT('part definition',#327,'design');
#323=PRODUCT_DEFINITION('IA0028_Shrinkwrap_1','IA0028_Shrinkwrap_1',#324,
#322);
#324=PRODUCT_DEFINITION_FORMATION('',$,#329);
#325=PRODUCT_RELATED_PRODUCT_CATEGORY('IA0028_Shrinkwrap_1',
'IA0028_Shrinkwrap_1',(#329));
#326=APPLICATION_PROTOCOL_DEFINITION('international standard',
'automotive_design',2009,#327);
#327=APPLICATION_CONTEXT(
'Core Data for Automotive Mechanical Design Process');
#328=PRODUCT_CONTEXT('part definition',#327,'mechanical');
#329=PRODUCT('IA0028_Shrinkwrap_1','IA0028_Shrinkwrap_1',$,(#328));
#330=PRESENTATION_STYLE_ASSIGNMENT((#334));
#331=PRESENTATION_STYLE_ASSIGNMENT((#335));
#332=PRESENTATION_STYLE_ASSIGNMENT((#336));
#333=PRESENTATION_STYLE_ASSIGNMENT((#337));
#334=SURFACE_STYLE_USAGE(.BOTH.,#346);
#335=SURFACE_STYLE_USAGE(.BOTH.,#347);
#336=SURFACE_STYLE_USAGE(.BOTH.,#348);
#337=SURFACE_STYLE_USAGE(.BOTH.,#349);
#338=SURFACE_STYLE_RENDERING_WITH_PROPERTIES($,#362,(#342));
#339=SURFACE_STYLE_RENDERING_WITH_PROPERTIES($,#363,(#343));
#340=SURFACE_STYLE_RENDERING_WITH_PROPERTIES($,#364,(#344));
#341=SURFACE_STYLE_RENDERING_WITH_PROPERTIES($,#365,(#345));
#342=SURFACE_STYLE_TRANSPARENT(0.);
#343=SURFACE_STYLE_TRANSPARENT(0.);
#344=SURFACE_STYLE_TRANSPARENT(0.);
#345=SURFACE_STYLE_TRANSPARENT(0.339999973773956);
#346=SURFACE_SIDE_STYLE('',(#350,#338));
#347=SURFACE_SIDE_STYLE('',(#351,#339));
#348=SURFACE_SIDE_STYLE('',(#352,#340));
#349=SURFACE_SIDE_STYLE('',(#353,#341));
#350=SURFACE_STYLE_FILL_AREA(#354);
#351=SURFACE_STYLE_FILL_AREA(#355);
#352=SURFACE_STYLE_FILL_AREA(#356);
#353=SURFACE_STYLE_FILL_AREA(#357);
#354=FILL_AREA_STYLE('',(#358));
#355=FILL_AREA_STYLE('',(#359));
#356=FILL_AREA_STYLE('',(#360));
#357=FILL_AREA_STYLE('',(#361));
#358=FILL_AREA_STYLE_COLOUR('',#362);
#359=FILL_AREA_STYLE_COLOUR('',#363);
#360=FILL_AREA_STYLE_COLOUR('',#364);
#361=FILL_AREA_STYLE_COLOUR('',#365);
#362=COLOUR_RGB('',0.749019607843137,0.749019607843137,0.749019607843137);
#363=COLOUR_RGB('',0.494117647058824,0.494117647058824,0.505882352941176);
#364=COLOUR_RGB('',0.494117647058824,0.494117647058824,0.505882352941176);
#365=COLOUR_RGB('',1.,1.,0.);
ENDSEC;
END-ISO-10303-21;
