ISO-10303-21;
HEADER;
/* Generated by software containing ST-Developer
 * from STEP Tools, Inc. (www.steptools.com) 
 */

FILE_DESCRIPTION(
/* description */ (''),
/* implementation_level */ '2;1');

FILE_NAME(
/* name */ 
'E:\\Allgemein\\Inventor Pojekte\\Ger\X\E4te\\405150_Shrinkwrap_1.stp',

/* time_stamp */ '2021-12-21T11:05:15+01:00',
/* author */ ('Krieger Anja'),
/* organization */ (''),
/* preprocessor_version */ 'ST-DEVELOPER v18.1',
/* originating_system */ 'Autodesk Inventor 2021',
/* authorisation */ '');

FILE_SCHEMA (('AUTOMOTIVE_DESIGN { 1 0 10303 214 3 1 1 }'));
ENDSEC;

DATA;
#10=MECHANICAL_DESIGN_GEOMETRIC_PRESENTATION_REPRESENTATION('',(#189,#190,
#191,#192,#193,#194,#195,#196,#197,#198,#199,#200,#201,#202,#203),#449);
#11=SHAPE_REPRESENTATION_RELATIONSHIP('SRR','None',#456,#12);
#12=ADVANCED_BREP_SHAPE_REPRESENTATION('',(#13),#448);
#13=MANIFOLD_SOLID_BREP('Volumenk\X\F6rper1',#218);
#14=CONICAL_SURFACE('',#250,3.75,0.785398163397448);
#15=CONICAL_SURFACE('',#259,3.75,0.785398163397449);
#16=FACE_BOUND('',#44,.T.);
#17=FACE_BOUND('',#47,.T.);
#18=FACE_BOUND('',#51,.T.);
#19=FACE_BOUND('',#54,.T.);
#20=PLANE('',#242);
#21=PLANE('',#244);
#22=PLANE('',#248);
#23=PLANE('',#257);
#24=PLANE('',#261);
#25=FACE_OUTER_BOUND('',#39,.T.);
#26=FACE_OUTER_BOUND('',#40,.T.);
#27=FACE_OUTER_BOUND('',#41,.T.);
#28=FACE_OUTER_BOUND('',#42,.T.);
#29=FACE_OUTER_BOUND('',#43,.T.);
#30=FACE_OUTER_BOUND('',#45,.T.);
#31=FACE_OUTER_BOUND('',#46,.T.);
#32=FACE_OUTER_BOUND('',#48,.T.);
#33=FACE_OUTER_BOUND('',#49,.T.);
#34=FACE_OUTER_BOUND('',#50,.T.);
#35=FACE_OUTER_BOUND('',#52,.T.);
#36=FACE_OUTER_BOUND('',#53,.T.);
#37=FACE_OUTER_BOUND('',#55,.T.);
#38=FACE_OUTER_BOUND('',#56,.T.);
#39=EDGE_LOOP('',(#132,#133,#134,#135,#136,#137,#138));
#40=EDGE_LOOP('',(#139,#140,#141));
#41=EDGE_LOOP('',(#142,#143,#144));
#42=EDGE_LOOP('',(#145));
#43=EDGE_LOOP('',(#146));
#44=EDGE_LOOP('',(#147));
#45=EDGE_LOOP('',(#148,#149,#150,#151));
#46=EDGE_LOOP('',(#152));
#47=EDGE_LOOP('',(#153));
#48=EDGE_LOOP('',(#154,#155,#156,#157,#158));
#49=EDGE_LOOP('',(#159,#160,#161,#162,#163,#164));
#50=EDGE_LOOP('',(#165));
#51=EDGE_LOOP('',(#166));
#52=EDGE_LOOP('',(#167,#168,#169,#170,#171));
#53=EDGE_LOOP('',(#172));
#54=EDGE_LOOP('',(#173));
#55=EDGE_LOOP('',(#174,#175,#176,#177));
#56=EDGE_LOOP('',(#178,#179,#180,#181));
#57=CIRCLE('',#239,1.95);
#58=CIRCLE('',#243,2.75);
#59=CIRCLE('',#245,2.8);
#60=CIRCLE('',#246,2.75);
#61=CIRCLE('',#249,3.);
#62=CIRCLE('',#251,3.5);
#63=CIRCLE('',#252,4.);
#64=CIRCLE('',#253,4.);
#65=CIRCLE('',#255,4.);
#66=CIRCLE('',#256,4.);
#67=CIRCLE('',#258,2.8);
#68=CIRCLE('',#260,3.5);
#69=CIRCLE('',#262,3.);
#70=LINE('',#350,#78);
#71=LINE('',#403,#79);
#72=LINE('',#414,#80);
#73=LINE('',#422,#81);
#74=LINE('',#428,#82);
#75=LINE('',#437,#83);
#76=LINE('',#443,#84);
#77=LINE('',#445,#85);
#78=VECTOR('',#269,1.95);
#79=VECTOR('',#274,10.);
#80=VECTOR('',#289,2.75);
#81=VECTOR('',#298,3.75);
#82=VECTOR('',#305,4.);
#83=VECTOR('',#316,3.75);
#84=VECTOR('',#325,2.8);
#85=VECTOR('',#328,3.);
#86=B_SPLINE_CURVE_WITH_KNOTS('',3,(#333,#334,#335,#336,#337,#338,#339,
#340,#341,#342,#343,#344,#345,#346,#347,#348),.UNSPECIFIED.,.F.,.F.,(4,
2,2,2,2,2,2,4),(0.391534172365443,0.433683480731259,0.475832789097076,0.56013140582871,
0.599984223474009,0.639837041119308,0.684024164303501,0.711313695225399),
 .UNSPECIFIED.);
#87=B_SPLINE_CURVE_WITH_KNOTS('',3,(#353,#354,#355,#356,#357,#358,#359,
#360,#361,#362,#363,#364,#365,#366,#367,#368),.UNSPECIFIED.,.F.,.F.,(4,
2,2,2,2,2,2,4),(0.0717546495054865,0.0990441804273839,0.143231303611577,
0.183084121256876,0.222936938902175,0.307235555633809,0.349384863999626,
0.391534172365443),.UNSPECIFIED.);
#88=B_SPLINE_CURVE_WITH_KNOTS('',3,(#370,#371,#372,#373,#374,#375,#376,
#377,#378,#379,#380,#381,#382,#383,#384,#385),.UNSPECIFIED.,.F.,.F.,(4,
2,2,2,2,2,2,4),(1.17460251709633,1.21675182546214,1.25890113382796,1.34319975055959,
1.38305256820489,1.42290538585019,1.46709250903439,1.49438203995628),
 .UNSPECIFIED.);
#89=B_SPLINE_CURVE_WITH_KNOTS('',3,(#386,#387,#388,#389,#390,#391,#392,
#393,#394,#395,#396,#397,#398,#399,#400,#401),.UNSPECIFIED.,.F.,.F.,(4,
2,2,2,2,2,2,4),(0.854822994236371,0.882112525158268,0.926299648342461,0.966152465987761,
1.00600528363306,1.09030390036469,1.13245320873051,1.17460251709633),
 .UNSPECIFIED.);
#90=VERTEX_POINT('',#331);
#91=VERTEX_POINT('',#332);
#92=VERTEX_POINT('',#349);
#93=VERTEX_POINT('',#352);
#94=VERTEX_POINT('',#369);
#95=VERTEX_POINT('',#406);
#96=VERTEX_POINT('',#409);
#97=VERTEX_POINT('',#411);
#98=VERTEX_POINT('',#416);
#99=VERTEX_POINT('',#419);
#100=VERTEX_POINT('',#421);
#101=VERTEX_POINT('',#423);
#102=VERTEX_POINT('',#427);
#103=VERTEX_POINT('',#429);
#104=VERTEX_POINT('',#433);
#105=VERTEX_POINT('',#436);
#106=VERTEX_POINT('',#440);
#107=EDGE_CURVE('',#90,#91,#86,.T.);
#108=EDGE_CURVE('',#90,#92,#70,.T.);
#109=EDGE_CURVE('',#92,#92,#57,.T.);
#110=EDGE_CURVE('',#93,#90,#87,.T.);
#111=EDGE_CURVE('',#94,#93,#88,.T.);
#112=EDGE_CURVE('',#91,#94,#89,.T.);
#113=EDGE_CURVE('',#91,#93,#71,.T.);
#114=EDGE_CURVE('',#95,#95,#58,.T.);
#115=EDGE_CURVE('',#96,#96,#59,.T.);
#116=EDGE_CURVE('',#97,#97,#60,.T.);
#117=EDGE_CURVE('',#95,#97,#72,.T.);
#118=EDGE_CURVE('',#98,#98,#61,.T.);
#119=EDGE_CURVE('',#99,#99,#62,.T.);
#120=EDGE_CURVE('',#99,#100,#73,.T.);
#121=EDGE_CURVE('',#100,#101,#63,.T.);
#122=EDGE_CURVE('',#101,#100,#64,.T.);
#123=EDGE_CURVE('',#101,#102,#74,.T.);
#124=EDGE_CURVE('',#103,#102,#65,.T.);
#125=EDGE_CURVE('',#102,#103,#66,.T.);
#126=EDGE_CURVE('',#104,#104,#67,.T.);
#127=EDGE_CURVE('',#103,#105,#75,.T.);
#128=EDGE_CURVE('',#105,#105,#68,.T.);
#129=EDGE_CURVE('',#106,#106,#69,.T.);
#130=EDGE_CURVE('',#104,#96,#76,.T.);
#131=EDGE_CURVE('',#106,#98,#77,.T.);
#132=ORIENTED_EDGE('',*,*,#107,.F.);
#133=ORIENTED_EDGE('',*,*,#108,.T.);
#134=ORIENTED_EDGE('',*,*,#109,.F.);
#135=ORIENTED_EDGE('',*,*,#108,.F.);
#136=ORIENTED_EDGE('',*,*,#110,.F.);
#137=ORIENTED_EDGE('',*,*,#111,.F.);
#138=ORIENTED_EDGE('',*,*,#112,.F.);
#139=ORIENTED_EDGE('',*,*,#112,.T.);
#140=ORIENTED_EDGE('',*,*,#111,.T.);
#141=ORIENTED_EDGE('',*,*,#113,.F.);
#142=ORIENTED_EDGE('',*,*,#107,.T.);
#143=ORIENTED_EDGE('',*,*,#113,.T.);
#144=ORIENTED_EDGE('',*,*,#110,.T.);
#145=ORIENTED_EDGE('',*,*,#114,.T.);
#146=ORIENTED_EDGE('',*,*,#115,.T.);
#147=ORIENTED_EDGE('',*,*,#116,.F.);
#148=ORIENTED_EDGE('',*,*,#114,.F.);
#149=ORIENTED_EDGE('',*,*,#117,.T.);
#150=ORIENTED_EDGE('',*,*,#116,.T.);
#151=ORIENTED_EDGE('',*,*,#117,.F.);
#152=ORIENTED_EDGE('',*,*,#118,.F.);
#153=ORIENTED_EDGE('',*,*,#109,.T.);
#154=ORIENTED_EDGE('',*,*,#119,.T.);
#155=ORIENTED_EDGE('',*,*,#120,.T.);
#156=ORIENTED_EDGE('',*,*,#121,.T.);
#157=ORIENTED_EDGE('',*,*,#122,.T.);
#158=ORIENTED_EDGE('',*,*,#120,.F.);
#159=ORIENTED_EDGE('',*,*,#121,.F.);
#160=ORIENTED_EDGE('',*,*,#122,.F.);
#161=ORIENTED_EDGE('',*,*,#123,.T.);
#162=ORIENTED_EDGE('',*,*,#124,.F.);
#163=ORIENTED_EDGE('',*,*,#125,.F.);
#164=ORIENTED_EDGE('',*,*,#123,.F.);
#165=ORIENTED_EDGE('',*,*,#119,.F.);
#166=ORIENTED_EDGE('',*,*,#126,.F.);
#167=ORIENTED_EDGE('',*,*,#124,.T.);
#168=ORIENTED_EDGE('',*,*,#125,.T.);
#169=ORIENTED_EDGE('',*,*,#127,.T.);
#170=ORIENTED_EDGE('',*,*,#128,.T.);
#171=ORIENTED_EDGE('',*,*,#127,.F.);
#172=ORIENTED_EDGE('',*,*,#128,.F.);
#173=ORIENTED_EDGE('',*,*,#129,.T.);
#174=ORIENTED_EDGE('',*,*,#126,.T.);
#175=ORIENTED_EDGE('',*,*,#130,.T.);
#176=ORIENTED_EDGE('',*,*,#115,.F.);
#177=ORIENTED_EDGE('',*,*,#130,.F.);
#178=ORIENTED_EDGE('',*,*,#129,.F.);
#179=ORIENTED_EDGE('',*,*,#131,.T.);
#180=ORIENTED_EDGE('',*,*,#118,.T.);
#181=ORIENTED_EDGE('',*,*,#131,.F.);
#182=CYLINDRICAL_SURFACE('',#238,1.95);
#183=CYLINDRICAL_SURFACE('',#240,1.2);
#184=CYLINDRICAL_SURFACE('',#241,1.2);
#185=CYLINDRICAL_SURFACE('',#247,2.75);
#186=CYLINDRICAL_SURFACE('',#254,4.);
#187=CYLINDRICAL_SURFACE('',#263,2.8);
#188=CYLINDRICAL_SURFACE('',#264,3.);
#189=STYLED_ITEM('',(#466),#204);
#190=STYLED_ITEM('',(#466),#205);
#191=STYLED_ITEM('',(#466),#206);
#192=STYLED_ITEM('',(#467),#207);
#193=STYLED_ITEM('',(#467),#208);
#194=STYLED_ITEM('',(#467),#209);
#195=STYLED_ITEM('',(#467),#210);
#196=STYLED_ITEM('',(#468),#211);
#197=STYLED_ITEM('',(#468),#212);
#198=STYLED_ITEM('',(#468),#213);
#199=STYLED_ITEM('',(#468),#214);
#200=STYLED_ITEM('',(#468),#215);
#201=STYLED_ITEM('',(#468),#216);
#202=STYLED_ITEM('',(#467),#217);
#203=STYLED_ITEM('',(#465),#13);
#204=ADVANCED_FACE('',(#25),#182,.T.);
#205=ADVANCED_FACE('',(#26),#183,.T.);
#206=ADVANCED_FACE('',(#27),#184,.F.);
#207=ADVANCED_FACE('',(#28),#20,.T.);
#208=ADVANCED_FACE('',(#29,#16),#21,.T.);
#209=ADVANCED_FACE('',(#30),#185,.T.);
#210=ADVANCED_FACE('',(#31,#17),#22,.T.);
#211=ADVANCED_FACE('',(#32),#14,.T.);
#212=ADVANCED_FACE('',(#33),#186,.T.);
#213=ADVANCED_FACE('',(#34,#18),#23,.T.);
#214=ADVANCED_FACE('',(#35),#15,.T.);
#215=ADVANCED_FACE('',(#36,#19),#24,.T.);
#216=ADVANCED_FACE('',(#37),#187,.F.);
#217=ADVANCED_FACE('',(#38),#188,.T.);
#218=CLOSED_SHELL('',(#204,#205,#206,#207,#208,#209,#210,#211,#212,#213,
#214,#215,#216,#217));
#219=DERIVED_UNIT_ELEMENT(#221,1.);
#220=DERIVED_UNIT_ELEMENT(#451,3.);
#221=(
MASS_UNIT()
NAMED_UNIT(*)
SI_UNIT($,.GRAM.)
);
#222=DERIVED_UNIT((#219,#220));
#223=MEASURE_REPRESENTATION_ITEM('density measure',
POSITIVE_RATIO_MEASURE(1.),#222);
#224=PROPERTY_DEFINITION_REPRESENTATION(#229,#226);
#225=PROPERTY_DEFINITION_REPRESENTATION(#230,#227);
#226=REPRESENTATION('material name',(#228),#448);
#227=REPRESENTATION('density',(#223),#448);
#228=DESCRIPTIVE_REPRESENTATION_ITEM('Allgemein','Allgemein');
#229=PROPERTY_DEFINITION('material property','material name',#458);
#230=PROPERTY_DEFINITION('material property','density of part',#458);
#231=DATE_TIME_ROLE('creation_date');
#232=APPLIED_DATE_AND_TIME_ASSIGNMENT(#233,#231,(#458));
#233=DATE_AND_TIME(#234,#235);
#234=CALENDAR_DATE(2021,21,12);
#235=LOCAL_TIME(0,0,0.,#236);
#236=COORDINATED_UNIVERSAL_TIME_OFFSET(0,0,.BEHIND.);
#237=AXIS2_PLACEMENT_3D('placement',#329,#265,#266);
#238=AXIS2_PLACEMENT_3D('',#330,#267,#268);
#239=AXIS2_PLACEMENT_3D('',#351,#270,#271);
#240=AXIS2_PLACEMENT_3D('',#402,#272,#273);
#241=AXIS2_PLACEMENT_3D('',#404,#275,#276);
#242=AXIS2_PLACEMENT_3D('',#405,#277,#278);
#243=AXIS2_PLACEMENT_3D('',#407,#279,#280);
#244=AXIS2_PLACEMENT_3D('',#408,#281,#282);
#245=AXIS2_PLACEMENT_3D('',#410,#283,#284);
#246=AXIS2_PLACEMENT_3D('',#412,#285,#286);
#247=AXIS2_PLACEMENT_3D('',#413,#287,#288);
#248=AXIS2_PLACEMENT_3D('',#415,#290,#291);
#249=AXIS2_PLACEMENT_3D('',#417,#292,#293);
#250=AXIS2_PLACEMENT_3D('',#418,#294,#295);
#251=AXIS2_PLACEMENT_3D('',#420,#296,#297);
#252=AXIS2_PLACEMENT_3D('',#424,#299,#300);
#253=AXIS2_PLACEMENT_3D('',#425,#301,#302);
#254=AXIS2_PLACEMENT_3D('',#426,#303,#304);
#255=AXIS2_PLACEMENT_3D('',#430,#306,#307);
#256=AXIS2_PLACEMENT_3D('',#431,#308,#309);
#257=AXIS2_PLACEMENT_3D('',#432,#310,#311);
#258=AXIS2_PLACEMENT_3D('',#434,#312,#313);
#259=AXIS2_PLACEMENT_3D('',#435,#314,#315);
#260=AXIS2_PLACEMENT_3D('',#438,#317,#318);
#261=AXIS2_PLACEMENT_3D('',#439,#319,#320);
#262=AXIS2_PLACEMENT_3D('',#441,#321,#322);
#263=AXIS2_PLACEMENT_3D('',#442,#323,#324);
#264=AXIS2_PLACEMENT_3D('',#444,#326,#327);
#265=DIRECTION('axis',(0.,0.,1.));
#266=DIRECTION('refdir',(1.,0.,0.));
#267=DIRECTION('center_axis',(-1.21430643318376E-16,1.,0.));
#268=DIRECTION('ref_axis',(-1.,-1.21430643318376E-16,0.));
#269=DIRECTION('',(1.21430643318376E-16,-1.,0.));
#270=DIRECTION('center_axis',(0.,-1.,0.));
#271=DIRECTION('ref_axis',(-1.,-1.21430643318376E-16,0.));
#272=DIRECTION('center_axis',(0.,0.,1.));
#273=DIRECTION('ref_axis',(-0.8125,-0.582961190818051,0.));
#274=DIRECTION('',(0.,0.,1.));
#275=DIRECTION('center_axis',(0.,0.,1.));
#276=DIRECTION('ref_axis',(-0.812499999999998,-0.582961190818054,0.));
#277=DIRECTION('center_axis',(1.5167687290291E-16,-1.,0.));
#278=DIRECTION('ref_axis',(0.,0.,-1.));
#279=DIRECTION('center_axis',(1.5167687290291E-16,-1.,0.));
#280=DIRECTION('ref_axis',(1.,0.,0.));
#281=DIRECTION('center_axis',(0.,-1.,0.));
#282=DIRECTION('ref_axis',(0.,0.,-1.));
#283=DIRECTION('center_axis',(1.78428700386186E-16,-1.,0.));
#284=DIRECTION('ref_axis',(1.,-1.51788304147971E-17,0.));
#285=DIRECTION('center_axis',(0.,-1.,0.));
#286=DIRECTION('ref_axis',(1.,0.,0.));
#287=DIRECTION('center_axis',(0.,-1.,0.));
#288=DIRECTION('ref_axis',(1.,0.,0.));
#289=DIRECTION('',(0.,1.,0.));
#290=DIRECTION('center_axis',(0.,1.,0.));
#291=DIRECTION('ref_axis',(0.,0.,1.));
#292=DIRECTION('center_axis',(0.,-1.,0.));
#293=DIRECTION('ref_axis',(1.,0.,0.));
#294=DIRECTION('center_axis',(-1.78428700386186E-16,1.,0.));
#295=DIRECTION('ref_axis',(-1.,-7.51713506256616E-17,0.));
#296=DIRECTION('center_axis',(-1.78428700386186E-16,1.,0.));
#297=DIRECTION('ref_axis',(-1.,-1.78428700386186E-16,0.));
#298=DIRECTION('',(0.707106781186547,0.707106781186548,8.65956056235493E-17));
#299=DIRECTION('center_axis',(1.78428700386186E-16,-1.,0.));
#300=DIRECTION('ref_axis',(-1.,1.51788304147971E-17,0.));
#301=DIRECTION('center_axis',(1.78428700386186E-16,-1.,0.));
#302=DIRECTION('ref_axis',(-1.,1.51788304147971E-17,0.));
#303=DIRECTION('center_axis',(1.78428700386186E-16,-1.,0.));
#304=DIRECTION('ref_axis',(1.,-1.51788304147971E-17,0.));
#305=DIRECTION('',(-1.78428700386186E-16,1.,0.));
#306=DIRECTION('center_axis',(-1.78428700386186E-16,1.,0.));
#307=DIRECTION('ref_axis',(-1.,1.51788304147971E-17,0.));
#308=DIRECTION('center_axis',(-1.78428700386186E-16,1.,0.));
#309=DIRECTION('ref_axis',(-1.,1.51788304147971E-17,0.));
#310=DIRECTION('center_axis',(1.78428700386186E-16,-1.,0.));
#311=DIRECTION('ref_axis',(0.,0.,-1.));
#312=DIRECTION('center_axis',(1.78428700386186E-16,-1.,0.));
#313=DIRECTION('ref_axis',(1.,-1.51788304147971E-17,0.));
#314=DIRECTION('center_axis',(1.78428700386186E-16,-1.,0.));
#315=DIRECTION('ref_axis',(-1.,-7.51713506256616E-17,0.));
#316=DIRECTION('',(-0.707106781186548,0.707106781186547,-8.65956056235494E-17));
#317=DIRECTION('center_axis',(1.78428700386186E-16,-1.,0.));
#318=DIRECTION('ref_axis',(-1.,-1.78428700386186E-16,0.));
#319=DIRECTION('center_axis',(-1.78428700386186E-16,1.,0.));
#320=DIRECTION('ref_axis',(0.,0.,1.));
#321=DIRECTION('center_axis',(1.78428700386186E-16,-1.,0.));
#322=DIRECTION('ref_axis',(1.,-1.51788304147971E-17,0.));
#323=DIRECTION('center_axis',(1.78428700386186E-16,-1.,0.));
#324=DIRECTION('ref_axis',(1.,-1.51788304147971E-17,0.));
#325=DIRECTION('',(-1.78428700386186E-16,1.,0.));
#326=DIRECTION('center_axis',(1.78428700386186E-16,-1.,0.));
#327=DIRECTION('ref_axis',(1.,-1.51788304147971E-17,0.));
#328=DIRECTION('',(-1.78428700386186E-16,1.,0.));
#329=CARTESIAN_POINT('',(0.,0.,0.));
#330=CARTESIAN_POINT('Origin',(-2.77555756156289E-15,1.,0.));
#331=CARTESIAN_POINT('',(1.94999999999999,31.,0.));
#332=CARTESIAN_POINT('',(-6.38378239159465E-15,31.,-1.95));
#333=CARTESIAN_POINT('Ctrl Pts',(1.94999999999999,31.,-3.46944695195361E-17));
#334=CARTESIAN_POINT('Ctrl Pts',(1.94999999999999,31.,-0.140497694552723));
#335=CARTESIAN_POINT('Ctrl Pts',(1.93484062491239,30.9778680592345,-0.27851784549624));
#336=CARTESIAN_POINT('Ctrl Pts',(1.87701758513311,30.9068133897615,-0.545943827692718));
#337=CARTESIAN_POINT('Ctrl Pts',(1.8342990981772,30.8585791368793,-0.675520259067046));
#338=CARTESIAN_POINT('Ctrl Pts',(1.66708295206205,30.7078123526801,-1.04750209821939));
#339=CARTESIAN_POINT('Ctrl Pts',(1.50232102747293,30.6007293531221,-1.27327048998299));
#340=CARTESIAN_POINT('Ctrl Pts',(1.19974326967511,30.5164829999208,-1.54273521410389));
#341=CARTESIAN_POINT('Ctrl Pts',(1.08318941382125,30.4980335797458,-1.62771450393266));
#342=CARTESIAN_POINT('Ctrl Pts',(0.835380899812415,30.5012790839553,-1.76773656354624));
#343=CARTESIAN_POINT('Ctrl Pts',(0.70414664801785,30.5236032937966,-1.82280015368416));
#344=CARTESIAN_POINT('Ctrl Pts',(0.450253860018928,30.6111684949073,-1.90245793231783));
#345=CARTESIAN_POINT('Ctrl Pts',(0.298569261383548,30.6975449603363,-1.9302233504047));
#346=CARTESIAN_POINT('Ctrl Pts',(0.119236675972452,30.8534447247356,-1.9475662761169));
#347=CARTESIAN_POINT('Ctrl Pts',(0.0553112980560173,30.9229100832468,-1.95));
#348=CARTESIAN_POINT('Ctrl Pts',(-5.55924663941942E-15,31.,-1.95));
#349=CARTESIAN_POINT('',(1.95,15.,2.38806125833734E-16));
#350=CARTESIAN_POINT('',(1.95,1.,-2.38806125833734E-16));
#351=CARTESIAN_POINT('Origin',(-4.47558656802016E-15,15.,0.));
#352=CARTESIAN_POINT('',(-6.38378239159465E-15,31.,1.95));
#353=CARTESIAN_POINT('Ctrl Pts',(-5.55924663941943E-15,31.,1.95));
#354=CARTESIAN_POINT('Ctrl Pts',(0.0553112980560146,30.9229100832468,1.95));
#355=CARTESIAN_POINT('Ctrl Pts',(0.119236675972452,30.8534447247356,1.9475662761169));
#356=CARTESIAN_POINT('Ctrl Pts',(0.298569261383547,30.6975449603363,1.9302233504047));
#357=CARTESIAN_POINT('Ctrl Pts',(0.450253860018927,30.6111684949073,1.90245793231782));
#358=CARTESIAN_POINT('Ctrl Pts',(0.704146648017849,30.5236032937966,1.82280015368416));
#359=CARTESIAN_POINT('Ctrl Pts',(0.835380899812415,30.5012790839553,1.76773656354624));
#360=CARTESIAN_POINT('Ctrl Pts',(1.08318941382125,30.4980335797458,1.62771450393266));
#361=CARTESIAN_POINT('Ctrl Pts',(1.19974326967511,30.5164829999208,1.54273521410389));
#362=CARTESIAN_POINT('Ctrl Pts',(1.50232102747293,30.6007293531221,1.27327048998299));
#363=CARTESIAN_POINT('Ctrl Pts',(1.66708295206205,30.7078123526801,1.04750209821939));
#364=CARTESIAN_POINT('Ctrl Pts',(1.8342990981772,30.8585791368793,0.675520259067046));
#365=CARTESIAN_POINT('Ctrl Pts',(1.87701758513311,30.9068133897615,0.545943827692718));
#366=CARTESIAN_POINT('Ctrl Pts',(1.93484062491239,30.9778680592345,0.27851784549624));
#367=CARTESIAN_POINT('Ctrl Pts',(1.94999999999999,31.,0.140497694552723));
#368=CARTESIAN_POINT('Ctrl Pts',(1.94999999999999,31.,-1.73472347597681E-16));
#369=CARTESIAN_POINT('',(-1.95000000000001,31.,0.));
#370=CARTESIAN_POINT('Ctrl Pts',(-1.95000000000001,31.,6.93889390390723E-17));
#371=CARTESIAN_POINT('Ctrl Pts',(-1.95000000000001,31.,0.140497694552722));
#372=CARTESIAN_POINT('Ctrl Pts',(-1.9348406249124,31.0221319407655,0.278517845496241));
#373=CARTESIAN_POINT('Ctrl Pts',(-1.87701758513312,31.0931866102385,0.54594382769272));
#374=CARTESIAN_POINT('Ctrl Pts',(-1.83429909817721,31.1414208631208,0.675520259067048));
#375=CARTESIAN_POINT('Ctrl Pts',(-1.66708295206206,31.2921876473199,1.04750209821939));
#376=CARTESIAN_POINT('Ctrl Pts',(-1.50232102747294,31.399270646878,1.27327048998299));
#377=CARTESIAN_POINT('Ctrl Pts',(-1.19974326967512,31.4835170000792,1.54273521410389));
#378=CARTESIAN_POINT('Ctrl Pts',(-1.08318941382126,31.5019664202542,1.62771450393266));
#379=CARTESIAN_POINT('Ctrl Pts',(-0.835380899812428,31.4987209160447,1.76773656354624));
#380=CARTESIAN_POINT('Ctrl Pts',(-0.704146648017862,31.4763967062034,1.82280015368416));
#381=CARTESIAN_POINT('Ctrl Pts',(-0.45025386001894,31.3888315050927,1.90245793231782));
#382=CARTESIAN_POINT('Ctrl Pts',(-0.29856926138356,31.3024550396637,1.9302233504047));
#383=CARTESIAN_POINT('Ctrl Pts',(-0.119236675972465,31.1465552752644,1.9475662761169));
#384=CARTESIAN_POINT('Ctrl Pts',(-0.0553112980560258,31.0770899167532,1.95));
#385=CARTESIAN_POINT('Ctrl Pts',(-6.10893714086958E-15,31.,1.95));
#386=CARTESIAN_POINT('Ctrl Pts',(-6.10893714086958E-15,31.,-1.95));
#387=CARTESIAN_POINT('Ctrl Pts',(-0.0553112980560259,31.0770899167532,-1.95));
#388=CARTESIAN_POINT('Ctrl Pts',(-0.119236675972464,31.1465552752644,-1.9475662761169));
#389=CARTESIAN_POINT('Ctrl Pts',(-0.29856926138356,31.3024550396637,-1.9302233504047));
#390=CARTESIAN_POINT('Ctrl Pts',(-0.45025386001894,31.3888315050927,-1.90245793231782));
#391=CARTESIAN_POINT('Ctrl Pts',(-0.704146648017862,31.4763967062034,-1.82280015368416));
#392=CARTESIAN_POINT('Ctrl Pts',(-0.835380899812428,31.4987209160447,-1.76773656354624));
#393=CARTESIAN_POINT('Ctrl Pts',(-1.08318941382126,31.5019664202542,-1.62771450393266));
#394=CARTESIAN_POINT('Ctrl Pts',(-1.19974326967512,31.4835170000792,-1.54273521410389));
#395=CARTESIAN_POINT('Ctrl Pts',(-1.50232102747294,31.399270646878,-1.27327048998299));
#396=CARTESIAN_POINT('Ctrl Pts',(-1.66708295206206,31.2921876473199,-1.04750209821939));
#397=CARTESIAN_POINT('Ctrl Pts',(-1.83429909817721,31.1414208631208,-0.675520259067047));
#398=CARTESIAN_POINT('Ctrl Pts',(-1.87701758513312,31.0931866102385,-0.54594382769272));
#399=CARTESIAN_POINT('Ctrl Pts',(-1.9348406249124,31.0221319407655,-0.278517845496241));
#400=CARTESIAN_POINT('Ctrl Pts',(-1.95000000000001,31.,-0.140497694552722));
#401=CARTESIAN_POINT('Ctrl Pts',(-1.95000000000001,31.,-8.67361737988404E-17));
#402=CARTESIAN_POINT('Origin',(-0.975000000000006,30.3004465710183,-1.95));
#403=CARTESIAN_POINT('',(-6.38378239159465E-15,31.,-1.95));
#404=CARTESIAN_POINT('Origin',(0.974999999999992,31.6995534289817,-1.95));
#405=CARTESIAN_POINT('Origin',(1.375,1.02692770462205E-16,0.));
#406=CARTESIAN_POINT('',(-2.75,0.,-3.36777869765522E-16));
#407=CARTESIAN_POINT('Origin',(1.23259516440783E-31,-3.14418630020796E-16,
0.));
#408=CARTESIAN_POINT('Origin',(2.875,14.,0.));
#409=CARTESIAN_POINT('',(-2.8,14.,-3.42901103761259E-16));
#410=CARTESIAN_POINT('Origin',(-2.4980018054066E-15,14.,0.));
#411=CARTESIAN_POINT('',(-2.75,14.,-3.36777869765522E-16));
#412=CARTESIAN_POINT('Origin',(-2.71050543121376E-15,14.,0.));
#413=CARTESIAN_POINT('Origin',(-2.71050543121376E-15,10.1,0.));
#414=CARTESIAN_POINT('',(-2.75,10.1,-3.36777869765522E-16));
#415=CARTESIAN_POINT('Origin',(2.42499999999999,15.,0.));
#416=CARTESIAN_POINT('',(-3.,15.,-3.67394039744206E-16));
#417=CARTESIAN_POINT('Origin',(-2.71050543121376E-15,15.,0.));
#418=CARTESIAN_POINT('Origin',(-4.46071750965463E-17,0.25,0.));
#419=CARTESIAN_POINT('',(3.5,2.08166817117217E-16,-4.28612223837832E-16));
#420=CARTESIAN_POINT('Origin',(2.1570415377137E-31,-4.16333634234434E-16,
0.));
#421=CARTESIAN_POINT('',(4.,0.5,4.89842541528951E-16));
#422=CARTESIAN_POINT('',(3.75,0.25,4.59242549680257E-16));
#423=CARTESIAN_POINT('',(-4.,0.499999999999999,-4.89858719658941E-16));
#424=CARTESIAN_POINT('Origin',(-8.92143501930929E-17,0.5,0.));
#425=CARTESIAN_POINT('Origin',(-8.92143501930929E-17,0.5,0.));
#426=CARTESIAN_POINT('Origin',(-1.07057220231711E-15,6.,0.));
#427=CARTESIAN_POINT('',(-4.,11.5,-4.89858719658941E-16));
#428=CARTESIAN_POINT('',(-4.,6.,-4.89858719658941E-16));
#429=CARTESIAN_POINT('',(4.,11.5,-4.89842541528951E-16));
#430=CARTESIAN_POINT('Origin',(-2.05193005444114E-15,11.5,0.));
#431=CARTESIAN_POINT('Origin',(-2.05193005444114E-15,11.5,0.));
#432=CARTESIAN_POINT('Origin',(3.4,2.26449658807217E-16,0.));
#433=CARTESIAN_POINT('',(-2.8,0.,-3.42901103761259E-16));
#434=CARTESIAN_POINT('Origin',(1.52629948092688E-31,-3.14418630020796E-16,
0.));
#435=CARTESIAN_POINT('Origin',(-2.09653722953768E-15,11.75,0.));
#436=CARTESIAN_POINT('',(3.5,12.,4.28612223837832E-16));
#437=CARTESIAN_POINT('',(3.75,11.75,4.59242549680258E-16));
#438=CARTESIAN_POINT('Origin',(-2.14114440463423E-15,12.,0.));
#439=CARTESIAN_POINT('Origin',(3.5,12.,0.));
#440=CARTESIAN_POINT('',(-3.,12.,-3.67394039744206E-16));
#441=CARTESIAN_POINT('Origin',(-2.14114440463423E-15,12.,0.));
#442=CARTESIAN_POINT('Origin',(-1.2490009027033E-15,7.,0.));
#443=CARTESIAN_POINT('',(-2.8,7.,-3.42901103761259E-16));
#444=CARTESIAN_POINT('Origin',(-2.31957310502042E-15,13.,0.));
#445=CARTESIAN_POINT('',(-3.,13.,-3.67394039744206E-16));
#446=UNCERTAINTY_MEASURE_WITH_UNIT(LENGTH_MEASURE(0.01),#450,
'DISTANCE_ACCURACY_VALUE',
'Maximum model space distance between geometric entities at asserted c
onnectivities');
#447=UNCERTAINTY_MEASURE_WITH_UNIT(LENGTH_MEASURE(0.01),#450,
'DISTANCE_ACCURACY_VALUE',
'Maximum model space distance between geometric entities at asserted c
onnectivities');
#448=(
GEOMETRIC_REPRESENTATION_CONTEXT(3)
GLOBAL_UNCERTAINTY_ASSIGNED_CONTEXT((#446))
GLOBAL_UNIT_ASSIGNED_CONTEXT((#450,#452,#453))
REPRESENTATION_CONTEXT('','3D')
);
#449=(
GEOMETRIC_REPRESENTATION_CONTEXT(3)
GLOBAL_UNCERTAINTY_ASSIGNED_CONTEXT((#447))
GLOBAL_UNIT_ASSIGNED_CONTEXT((#450,#452,#453))
REPRESENTATION_CONTEXT('','3D')
);
#450=(
LENGTH_UNIT()
NAMED_UNIT(*)
SI_UNIT(.MILLI.,.METRE.)
);
#451=(
LENGTH_UNIT()
NAMED_UNIT(*)
SI_UNIT(.CENTI.,.METRE.)
);
#452=(
NAMED_UNIT(*)
PLANE_ANGLE_UNIT()
SI_UNIT($,.RADIAN.)
);
#453=(
NAMED_UNIT(*)
SI_UNIT($,.STERADIAN.)
SOLID_ANGLE_UNIT()
);
#454=SHAPE_DEFINITION_REPRESENTATION(#455,#456);
#455=PRODUCT_DEFINITION_SHAPE('',$,#458);
#456=SHAPE_REPRESENTATION('',(#237),#448);
#457=PRODUCT_DEFINITION_CONTEXT('part definition',#462,'design');
#458=PRODUCT_DEFINITION('405150_Shrinkwrap_1','405150_Shrinkwrap_1',#459,
#457);
#459=PRODUCT_DEFINITION_FORMATION('',$,#464);
#460=PRODUCT_RELATED_PRODUCT_CATEGORY('405150_Shrinkwrap_1',
'405150_Shrinkwrap_1',(#464));
#461=APPLICATION_PROTOCOL_DEFINITION('international standard',
'automotive_design',2009,#462);
#462=APPLICATION_CONTEXT(
'Core Data for Automotive Mechanical Design Process');
#463=PRODUCT_CONTEXT('part definition',#462,'mechanical');
#464=PRODUCT('405150_Shrinkwrap_1','405150_Shrinkwrap_1',$,(#463));
#465=PRESENTATION_STYLE_ASSIGNMENT((#469));
#466=PRESENTATION_STYLE_ASSIGNMENT((#470));
#467=PRESENTATION_STYLE_ASSIGNMENT((#471));
#468=PRESENTATION_STYLE_ASSIGNMENT((#472));
#469=SURFACE_STYLE_USAGE(.BOTH.,#481);
#470=SURFACE_STYLE_USAGE(.BOTH.,#482);
#471=SURFACE_STYLE_USAGE(.BOTH.,#483);
#472=SURFACE_STYLE_USAGE(.BOTH.,#484);
#473=SURFACE_STYLE_RENDERING_WITH_PROPERTIES($,#497,(#477));
#474=SURFACE_STYLE_RENDERING_WITH_PROPERTIES($,#498,(#478));
#475=SURFACE_STYLE_RENDERING_WITH_PROPERTIES($,#499,(#479));
#476=SURFACE_STYLE_RENDERING_WITH_PROPERTIES($,#500,(#480));
#477=SURFACE_STYLE_TRANSPARENT(0.);
#478=SURFACE_STYLE_TRANSPARENT(0.);
#479=SURFACE_STYLE_TRANSPARENT(0.);
#480=SURFACE_STYLE_TRANSPARENT(0.);
#481=SURFACE_SIDE_STYLE('',(#485,#473));
#482=SURFACE_SIDE_STYLE('',(#486,#474));
#483=SURFACE_SIDE_STYLE('',(#487,#475));
#484=SURFACE_SIDE_STYLE('',(#488,#476));
#485=SURFACE_STYLE_FILL_AREA(#489);
#486=SURFACE_STYLE_FILL_AREA(#490);
#487=SURFACE_STYLE_FILL_AREA(#491);
#488=SURFACE_STYLE_FILL_AREA(#492);
#489=FILL_AREA_STYLE('',(#493));
#490=FILL_AREA_STYLE('',(#494));
#491=FILL_AREA_STYLE('',(#495));
#492=FILL_AREA_STYLE('',(#496));
#493=FILL_AREA_STYLE_COLOUR('',#497);
#494=FILL_AREA_STYLE_COLOUR('',#498);
#495=FILL_AREA_STYLE_COLOUR('',#499);
#496=FILL_AREA_STYLE_COLOUR('',#500);
#497=COLOUR_RGB('',0.749019607843137,0.749019607843137,0.749019607843137);
#498=COLOUR_RGB('',0.,0.,1.);
#499=COLOUR_RGB('',0.92156862745098,0.92156862745098,0.92156862745098);
#500=COLOUR_RGB('',0.87843137254902,0.874509803921569,0.858823529411765);
ENDSEC;
END-ISO-10303-21;
