ISO-10303-21;
HEADER;
/* Generated by software containing ST-Developer
 * from STEP Tools, Inc. (www.steptools.com) 
 */

FILE_DESCRIPTION(
/* description */ (''),
/* implementation_level */ '2;1');

FILE_NAME(
/* name */ 
'E:\\Allgemein\\Inventor Pojekte\\Ger\X\E4te\\400490_Shrinkwrap_1.stp',

/* time_stamp */ '2021-12-21T11:02:15+01:00',
/* author */ ('Krieger Anja'),
/* organization */ (''),
/* preprocessor_version */ 'ST-DEVELOPER v18.1',
/* originating_system */ 'Autodesk Inventor 2021',
/* authorisation */ '');

FILE_SCHEMA (('AUTOMOTIVE_DESIGN { 1 0 10303 214 3 1 1 }'));
ENDSEC;

DATA;
#10=MECHANICAL_DESIGN_GEOMETRIC_PRESENTATION_REPRESENTATION('',(#184,#185,
#186,#187,#188,#189,#190,#191,#192,#193,#194,#195,#196,#197),#438);
#11=SHAPE_REPRESENTATION_RELATIONSHIP('SRR','None',#445,#12);
#12=ADVANCED_BREP_SHAPE_REPRESENTATION('',(#13),#437);
#13=MANIFOLD_SOLID_BREP('Volumenk\X\F6rper1',#211);
#14=CONICAL_SURFACE('',#245,3.7,0.785398163397446);
#15=CONICAL_SURFACE('',#251,3.7,0.78539816339745);
#16=FACE_BOUND('',#41,.T.);
#17=FACE_BOUND('',#43,.T.);
#18=FACE_BOUND('',#50,.T.);
#19=PLANE('',#238);
#20=PLANE('',#239);
#21=PLANE('',#244);
#22=PLANE('',#254);
#23=FACE_OUTER_BOUND('',#36,.T.);
#24=FACE_OUTER_BOUND('',#37,.T.);
#25=FACE_OUTER_BOUND('',#38,.T.);
#26=FACE_OUTER_BOUND('',#39,.T.);
#27=FACE_OUTER_BOUND('',#40,.T.);
#28=FACE_OUTER_BOUND('',#42,.T.);
#29=FACE_OUTER_BOUND('',#44,.T.);
#30=FACE_OUTER_BOUND('',#45,.T.);
#31=FACE_OUTER_BOUND('',#46,.T.);
#32=FACE_OUTER_BOUND('',#47,.T.);
#33=FACE_OUTER_BOUND('',#48,.T.);
#34=FACE_OUTER_BOUND('',#49,.T.);
#35=FACE_OUTER_BOUND('',#51,.T.);
#36=EDGE_LOOP('',(#127,#128,#129,#130,#131,#132,#133));
#37=EDGE_LOOP('',(#134,#135,#136));
#38=EDGE_LOOP('',(#137,#138,#139));
#39=EDGE_LOOP('',(#140,#141,#142,#143));
#40=EDGE_LOOP('',(#144));
#41=EDGE_LOOP('',(#145));
#42=EDGE_LOOP('',(#146));
#43=EDGE_LOOP('',(#147));
#44=EDGE_LOOP('',(#148,#149,#150,#151));
#45=EDGE_LOOP('',(#152));
#46=EDGE_LOOP('',(#153,#154,#155,#156,#157));
#47=EDGE_LOOP('',(#158,#159,#160,#161,#162,#163));
#48=EDGE_LOOP('',(#164,#165,#166,#167,#168,#169));
#49=EDGE_LOOP('',(#170));
#50=EDGE_LOOP('',(#171));
#51=EDGE_LOOP('',(#172,#173,#174,#175,#176));
#52=CIRCLE('',#232,1.95);
#53=CIRCLE('',#236,3.25);
#54=CIRCLE('',#237,3.25);
#55=CIRCLE('',#240,3.5);
#56=CIRCLE('',#241,3.4);
#57=CIRCLE('',#243,3.5);
#58=CIRCLE('',#246,4.);
#59=CIRCLE('',#247,4.);
#60=CIRCLE('',#249,4.);
#61=CIRCLE('',#250,4.);
#62=CIRCLE('',#252,3.39999999999999);
#63=CIRCLE('',#253,3.39999999999999);
#64=CIRCLE('',#255,3.39999999999999);
#65=LINE('',#340,#73);
#66=LINE('',#393,#74);
#67=LINE('',#399,#75);
#68=LINE('',#410,#76);
#69=LINE('',#414,#77);
#70=LINE('',#420,#78);
#71=LINE('',#426,#79);
#72=LINE('',#434,#80);
#73=VECTOR('',#261,1.95);
#74=VECTOR('',#266,10.);
#75=VECTOR('',#273,3.25);
#76=VECTOR('',#288,3.5);
#77=VECTOR('',#293,3.7);
#78=VECTOR('',#300,4.);
#79=VECTOR('',#307,3.69999999999999);
#80=VECTOR('',#318,3.39999999999999);
#81=B_SPLINE_CURVE_WITH_KNOTS('',3,(#323,#324,#325,#326,#327,#328,#329,
#330,#331,#332,#333,#334,#335,#336,#337,#338),.UNSPECIFIED.,.F.,.F.,(4,
2,2,2,2,2,2,4),(0.391534172365443,0.433683480731259,0.475832789097076,0.56013140582871,
0.599984223474009,0.639837041119308,0.684024164303501,0.711313695225399),
 .UNSPECIFIED.);
#82=B_SPLINE_CURVE_WITH_KNOTS('',3,(#343,#344,#345,#346,#347,#348,#349,
#350,#351,#352,#353,#354,#355,#356,#357,#358),.UNSPECIFIED.,.F.,.F.,(4,
2,2,2,2,2,2,4),(0.0717546495054865,0.0990441804273839,0.143231303611577,
0.183084121256876,0.222936938902175,0.307235555633809,0.349384863999626,
0.391534172365443),.UNSPECIFIED.);
#83=B_SPLINE_CURVE_WITH_KNOTS('',3,(#360,#361,#362,#363,#364,#365,#366,
#367,#368,#369,#370,#371,#372,#373,#374,#375),.UNSPECIFIED.,.F.,.F.,(4,
2,2,2,2,2,2,4),(1.17460251709633,1.21675182546214,1.25890113382796,1.34319975055959,
1.38305256820489,1.42290538585019,1.46709250903439,1.49438203995628),
 .UNSPECIFIED.);
#84=B_SPLINE_CURVE_WITH_KNOTS('',3,(#376,#377,#378,#379,#380,#381,#382,
#383,#384,#385,#386,#387,#388,#389,#390,#391),.UNSPECIFIED.,.F.,.F.,(4,
2,2,2,2,2,2,4),(0.854822994236371,0.882112525158268,0.926299648342461,0.966152465987761,
1.00600528363306,1.09030390036469,1.13245320873051,1.17460251709633),
 .UNSPECIFIED.);
#85=VERTEX_POINT('',#321);
#86=VERTEX_POINT('',#322);
#87=VERTEX_POINT('',#339);
#88=VERTEX_POINT('',#342);
#89=VERTEX_POINT('',#359);
#90=VERTEX_POINT('',#396);
#91=VERTEX_POINT('',#398);
#92=VERTEX_POINT('',#403);
#93=VERTEX_POINT('',#405);
#94=VERTEX_POINT('',#408);
#95=VERTEX_POINT('',#413);
#96=VERTEX_POINT('',#415);
#97=VERTEX_POINT('',#419);
#98=VERTEX_POINT('',#421);
#99=VERTEX_POINT('',#425);
#100=VERTEX_POINT('',#427);
#101=VERTEX_POINT('',#431);
#102=EDGE_CURVE('',#85,#86,#81,.T.);
#103=EDGE_CURVE('',#85,#87,#65,.T.);
#104=EDGE_CURVE('',#87,#87,#52,.T.);
#105=EDGE_CURVE('',#88,#85,#82,.T.);
#106=EDGE_CURVE('',#89,#88,#83,.T.);
#107=EDGE_CURVE('',#86,#89,#84,.T.);
#108=EDGE_CURVE('',#86,#88,#66,.T.);
#109=EDGE_CURVE('',#90,#90,#53,.T.);
#110=EDGE_CURVE('',#90,#91,#67,.T.);
#111=EDGE_CURVE('',#91,#91,#54,.T.);
#112=EDGE_CURVE('',#92,#92,#55,.T.);
#113=EDGE_CURVE('',#93,#93,#56,.T.);
#114=EDGE_CURVE('',#94,#94,#57,.T.);
#115=EDGE_CURVE('',#94,#92,#68,.T.);
#116=EDGE_CURVE('',#93,#95,#69,.T.);
#117=EDGE_CURVE('',#95,#96,#58,.T.);
#118=EDGE_CURVE('',#96,#95,#59,.T.);
#119=EDGE_CURVE('',#96,#97,#70,.T.);
#120=EDGE_CURVE('',#98,#97,#60,.T.);
#121=EDGE_CURVE('',#97,#98,#61,.T.);
#122=EDGE_CURVE('',#98,#99,#71,.T.);
#123=EDGE_CURVE('',#99,#100,#62,.T.);
#124=EDGE_CURVE('',#100,#99,#63,.T.);
#125=EDGE_CURVE('',#101,#101,#64,.T.);
#126=EDGE_CURVE('',#100,#101,#72,.T.);
#127=ORIENTED_EDGE('',*,*,#102,.F.);
#128=ORIENTED_EDGE('',*,*,#103,.T.);
#129=ORIENTED_EDGE('',*,*,#104,.F.);
#130=ORIENTED_EDGE('',*,*,#103,.F.);
#131=ORIENTED_EDGE('',*,*,#105,.F.);
#132=ORIENTED_EDGE('',*,*,#106,.F.);
#133=ORIENTED_EDGE('',*,*,#107,.F.);
#134=ORIENTED_EDGE('',*,*,#107,.T.);
#135=ORIENTED_EDGE('',*,*,#106,.T.);
#136=ORIENTED_EDGE('',*,*,#108,.F.);
#137=ORIENTED_EDGE('',*,*,#102,.T.);
#138=ORIENTED_EDGE('',*,*,#108,.T.);
#139=ORIENTED_EDGE('',*,*,#105,.T.);
#140=ORIENTED_EDGE('',*,*,#109,.F.);
#141=ORIENTED_EDGE('',*,*,#110,.T.);
#142=ORIENTED_EDGE('',*,*,#111,.T.);
#143=ORIENTED_EDGE('',*,*,#110,.F.);
#144=ORIENTED_EDGE('',*,*,#111,.F.);
#145=ORIENTED_EDGE('',*,*,#104,.T.);
#146=ORIENTED_EDGE('',*,*,#112,.F.);
#147=ORIENTED_EDGE('',*,*,#113,.F.);
#148=ORIENTED_EDGE('',*,*,#114,.F.);
#149=ORIENTED_EDGE('',*,*,#115,.T.);
#150=ORIENTED_EDGE('',*,*,#112,.T.);
#151=ORIENTED_EDGE('',*,*,#115,.F.);
#152=ORIENTED_EDGE('',*,*,#114,.T.);
#153=ORIENTED_EDGE('',*,*,#113,.T.);
#154=ORIENTED_EDGE('',*,*,#116,.T.);
#155=ORIENTED_EDGE('',*,*,#117,.T.);
#156=ORIENTED_EDGE('',*,*,#118,.T.);
#157=ORIENTED_EDGE('',*,*,#116,.F.);
#158=ORIENTED_EDGE('',*,*,#117,.F.);
#159=ORIENTED_EDGE('',*,*,#118,.F.);
#160=ORIENTED_EDGE('',*,*,#119,.T.);
#161=ORIENTED_EDGE('',*,*,#120,.F.);
#162=ORIENTED_EDGE('',*,*,#121,.F.);
#163=ORIENTED_EDGE('',*,*,#119,.F.);
#164=ORIENTED_EDGE('',*,*,#120,.T.);
#165=ORIENTED_EDGE('',*,*,#121,.T.);
#166=ORIENTED_EDGE('',*,*,#122,.T.);
#167=ORIENTED_EDGE('',*,*,#123,.T.);
#168=ORIENTED_EDGE('',*,*,#124,.T.);
#169=ORIENTED_EDGE('',*,*,#122,.F.);
#170=ORIENTED_EDGE('',*,*,#125,.F.);
#171=ORIENTED_EDGE('',*,*,#109,.T.);
#172=ORIENTED_EDGE('',*,*,#123,.F.);
#173=ORIENTED_EDGE('',*,*,#124,.F.);
#174=ORIENTED_EDGE('',*,*,#126,.T.);
#175=ORIENTED_EDGE('',*,*,#125,.T.);
#176=ORIENTED_EDGE('',*,*,#126,.F.);
#177=CYLINDRICAL_SURFACE('',#231,1.95);
#178=CYLINDRICAL_SURFACE('',#233,1.2);
#179=CYLINDRICAL_SURFACE('',#234,1.2);
#180=CYLINDRICAL_SURFACE('',#235,3.25);
#181=CYLINDRICAL_SURFACE('',#242,3.5);
#182=CYLINDRICAL_SURFACE('',#248,4.);
#183=CYLINDRICAL_SURFACE('',#256,3.39999999999999);
#184=STYLED_ITEM('',(#455),#198);
#185=STYLED_ITEM('',(#455),#199);
#186=STYLED_ITEM('',(#455),#200);
#187=STYLED_ITEM('',(#456),#201);
#188=STYLED_ITEM('',(#456),#202);
#189=STYLED_ITEM('',(#457),#203);
#190=STYLED_ITEM('',(#457),#204);
#191=STYLED_ITEM('',(#457),#205);
#192=STYLED_ITEM('',(#458),#206);
#193=STYLED_ITEM('',(#458),#207);
#194=STYLED_ITEM('',(#458),#208);
#195=STYLED_ITEM('',(#458),#209);
#196=STYLED_ITEM('',(#458),#210);
#197=STYLED_ITEM('',(#454),#13);
#198=ADVANCED_FACE('',(#23),#177,.T.);
#199=ADVANCED_FACE('',(#24),#178,.T.);
#200=ADVANCED_FACE('',(#25),#179,.F.);
#201=ADVANCED_FACE('',(#26),#180,.T.);
#202=ADVANCED_FACE('',(#27,#16),#19,.T.);
#203=ADVANCED_FACE('',(#28,#17),#20,.T.);
#204=ADVANCED_FACE('',(#29),#181,.T.);
#205=ADVANCED_FACE('',(#30),#21,.T.);
#206=ADVANCED_FACE('',(#31),#14,.T.);
#207=ADVANCED_FACE('',(#32),#182,.T.);
#208=ADVANCED_FACE('',(#33),#15,.T.);
#209=ADVANCED_FACE('',(#34,#18),#22,.T.);
#210=ADVANCED_FACE('',(#35),#183,.T.);
#211=CLOSED_SHELL('',(#198,#199,#200,#201,#202,#203,#204,#205,#206,#207,
#208,#209,#210));
#212=DERIVED_UNIT_ELEMENT(#214,1.);
#213=DERIVED_UNIT_ELEMENT(#440,3.);
#214=(
MASS_UNIT()
NAMED_UNIT(*)
SI_UNIT($,.GRAM.)
);
#215=DERIVED_UNIT((#212,#213));
#216=MEASURE_REPRESENTATION_ITEM('density measure',
POSITIVE_RATIO_MEASURE(1.),#215);
#217=PROPERTY_DEFINITION_REPRESENTATION(#222,#219);
#218=PROPERTY_DEFINITION_REPRESENTATION(#223,#220);
#219=REPRESENTATION('material name',(#221),#437);
#220=REPRESENTATION('density',(#216),#437);
#221=DESCRIPTIVE_REPRESENTATION_ITEM('Allgemein','Allgemein');
#222=PROPERTY_DEFINITION('material property','material name',#447);
#223=PROPERTY_DEFINITION('material property','density of part',#447);
#224=DATE_TIME_ROLE('creation_date');
#225=APPLIED_DATE_AND_TIME_ASSIGNMENT(#226,#224,(#447));
#226=DATE_AND_TIME(#227,#228);
#227=CALENDAR_DATE(2021,21,12);
#228=LOCAL_TIME(0,0,0.,#229);
#229=COORDINATED_UNIVERSAL_TIME_OFFSET(0,0,.BEHIND.);
#230=AXIS2_PLACEMENT_3D('placement',#319,#257,#258);
#231=AXIS2_PLACEMENT_3D('',#320,#259,#260);
#232=AXIS2_PLACEMENT_3D('',#341,#262,#263);
#233=AXIS2_PLACEMENT_3D('',#392,#264,#265);
#234=AXIS2_PLACEMENT_3D('',#394,#267,#268);
#235=AXIS2_PLACEMENT_3D('',#395,#269,#270);
#236=AXIS2_PLACEMENT_3D('',#397,#271,#272);
#237=AXIS2_PLACEMENT_3D('',#400,#274,#275);
#238=AXIS2_PLACEMENT_3D('',#401,#276,#277);
#239=AXIS2_PLACEMENT_3D('',#402,#278,#279);
#240=AXIS2_PLACEMENT_3D('',#404,#280,#281);
#241=AXIS2_PLACEMENT_3D('',#406,#282,#283);
#242=AXIS2_PLACEMENT_3D('',#407,#284,#285);
#243=AXIS2_PLACEMENT_3D('',#409,#286,#287);
#244=AXIS2_PLACEMENT_3D('',#411,#289,#290);
#245=AXIS2_PLACEMENT_3D('',#412,#291,#292);
#246=AXIS2_PLACEMENT_3D('',#416,#294,#295);
#247=AXIS2_PLACEMENT_3D('',#417,#296,#297);
#248=AXIS2_PLACEMENT_3D('',#418,#298,#299);
#249=AXIS2_PLACEMENT_3D('',#422,#301,#302);
#250=AXIS2_PLACEMENT_3D('',#423,#303,#304);
#251=AXIS2_PLACEMENT_3D('',#424,#305,#306);
#252=AXIS2_PLACEMENT_3D('',#428,#308,#309);
#253=AXIS2_PLACEMENT_3D('',#429,#310,#311);
#254=AXIS2_PLACEMENT_3D('',#430,#312,#313);
#255=AXIS2_PLACEMENT_3D('',#432,#314,#315);
#256=AXIS2_PLACEMENT_3D('',#433,#316,#317);
#257=DIRECTION('axis',(0.,0.,1.));
#258=DIRECTION('refdir',(1.,0.,0.));
#259=DIRECTION('center_axis',(-1.21430643318376E-16,1.,0.));
#260=DIRECTION('ref_axis',(-1.,-1.21430643318376E-16,0.));
#261=DIRECTION('',(1.21430643318376E-16,-1.,0.));
#262=DIRECTION('center_axis',(0.,-1.,0.));
#263=DIRECTION('ref_axis',(1.,0.,0.));
#264=DIRECTION('center_axis',(0.,0.,1.));
#265=DIRECTION('ref_axis',(-0.8125,-0.582961190818051,0.));
#266=DIRECTION('',(0.,0.,1.));
#267=DIRECTION('center_axis',(0.,0.,1.));
#268=DIRECTION('ref_axis',(-0.812499999999998,-0.582961190818054,0.));
#269=DIRECTION('center_axis',(0.,-1.,0.));
#270=DIRECTION('ref_axis',(1.,0.,0.));
#271=DIRECTION('center_axis',(1.94289029309402E-16,-1.,0.));
#272=DIRECTION('ref_axis',(1.,0.,0.));
#273=DIRECTION('',(0.,1.,0.));
#274=DIRECTION('center_axis',(0.,-1.,0.));
#275=DIRECTION('ref_axis',(1.,0.,0.));
#276=DIRECTION('center_axis',(0.,1.,0.));
#277=DIRECTION('ref_axis',(0.,0.,1.));
#278=DIRECTION('center_axis',(-1.7105197868153E-16,1.,0.));
#279=DIRECTION('ref_axis',(0.,0.,1.));
#280=DIRECTION('center_axis',(1.7105197868153E-16,-1.,0.));
#281=DIRECTION('ref_axis',(1.,0.,0.));
#282=DIRECTION('center_axis',(-1.94289029309402E-16,1.,0.));
#283=DIRECTION('ref_axis',(-1.,-1.94289029309402E-16,0.));
#284=DIRECTION('center_axis',(1.7105197868153E-16,-1.,0.));
#285=DIRECTION('ref_axis',(1.,0.,0.));
#286=DIRECTION('center_axis',(1.7105197868153E-16,-1.,0.));
#287=DIRECTION('ref_axis',(1.,0.,0.));
#288=DIRECTION('',(-1.7105197868153E-16,1.,0.));
#289=DIRECTION('center_axis',(1.7105197868153E-16,-1.,0.));
#290=DIRECTION('ref_axis',(0.,0.,-1.));
#291=DIRECTION('center_axis',(-1.94289029309402E-16,1.,0.));
#292=DIRECTION('ref_axis',(-1.,-1.16812528118817E-16,0.));
#293=DIRECTION('',(0.707106781186545,0.70710678118655,8.6595605623549E-17));
#294=DIRECTION('center_axis',(1.94289029309402E-16,-1.,0.));
#295=DIRECTION('ref_axis',(-1.,-5.09575021068187E-17,0.));
#296=DIRECTION('center_axis',(1.94289029309402E-16,-1.,0.));
#297=DIRECTION('ref_axis',(-1.,-5.09575021068187E-17,0.));
#298=DIRECTION('center_axis',(1.94289029309402E-16,-1.,0.));
#299=DIRECTION('ref_axis',(1.,5.09575021068187E-17,0.));
#300=DIRECTION('',(-1.94289029309402E-16,1.,0.));
#301=DIRECTION('center_axis',(-1.94289029309402E-16,1.,0.));
#302=DIRECTION('ref_axis',(-1.,-5.09575021068187E-17,0.));
#303=DIRECTION('center_axis',(-1.94289029309402E-16,1.,0.));
#304=DIRECTION('ref_axis',(-1.,-5.09575021068187E-17,0.));
#305=DIRECTION('center_axis',(1.94289029309402E-16,-1.,0.));
#306=DIRECTION('ref_axis',(-1.,-1.16812528118817E-16,0.));
#307=DIRECTION('',(-0.707106781186549,0.707106781186546,-8.65956056235496E-17));
#308=DIRECTION('center_axis',(1.94289029309402E-16,-1.,0.));
#309=DIRECTION('ref_axis',(1.,5.09575021068187E-17,0.));
#310=DIRECTION('center_axis',(1.94289029309402E-16,-1.,0.));
#311=DIRECTION('ref_axis',(1.,5.09575021068187E-17,0.));
#312=DIRECTION('center_axis',(-1.94289029309402E-16,1.,0.));
#313=DIRECTION('ref_axis',(0.,0.,1.));
#314=DIRECTION('center_axis',(1.94289029309402E-16,-1.,0.));
#315=DIRECTION('ref_axis',(1.,5.09575021068187E-17,0.));
#316=DIRECTION('center_axis',(1.94289029309402E-16,-1.,0.));
#317=DIRECTION('ref_axis',(1.,5.09575021068187E-17,0.));
#318=DIRECTION('',(-1.94289029309402E-16,1.,0.));
#319=CARTESIAN_POINT('',(0.,0.,0.));
#320=CARTESIAN_POINT('Origin',(-3.05311331771918E-15,3.,0.));
#321=CARTESIAN_POINT('',(1.94999999999999,33.,0.));
#322=CARTESIAN_POINT('',(-6.66133814775094E-15,33.,-1.95));
#323=CARTESIAN_POINT('Ctrl Pts',(1.94999999999999,33.,6.93889390390723E-17));
#324=CARTESIAN_POINT('Ctrl Pts',(1.94999999999999,33.,-0.140497694552722));
#325=CARTESIAN_POINT('Ctrl Pts',(1.93484062491239,32.9778680592345,-0.27851784549624));
#326=CARTESIAN_POINT('Ctrl Pts',(1.87701758513311,32.9068133897615,-0.545943827692718));
#327=CARTESIAN_POINT('Ctrl Pts',(1.8342990981772,32.8585791368793,-0.675520259067046));
#328=CARTESIAN_POINT('Ctrl Pts',(1.66708295206205,32.7078123526801,-1.04750209821939));
#329=CARTESIAN_POINT('Ctrl Pts',(1.50232102747293,32.6007293531221,-1.27327048998299));
#330=CARTESIAN_POINT('Ctrl Pts',(1.19974326967511,32.5164829999208,-1.54273521410389));
#331=CARTESIAN_POINT('Ctrl Pts',(1.08318941382125,32.4980335797458,-1.62771450393266));
#332=CARTESIAN_POINT('Ctrl Pts',(0.835380899812415,32.5012790839553,-1.76773656354624));
#333=CARTESIAN_POINT('Ctrl Pts',(0.704146648017849,32.5236032937966,-1.82280015368416));
#334=CARTESIAN_POINT('Ctrl Pts',(0.450253860018927,32.6111684949073,-1.90245793231783));
#335=CARTESIAN_POINT('Ctrl Pts',(0.298569261383547,32.6975449603363,-1.9302233504047));
#336=CARTESIAN_POINT('Ctrl Pts',(0.119236675972452,32.8534447247356,-1.9475662761169));
#337=CARTESIAN_POINT('Ctrl Pts',(0.055311298056017,32.9229100832468,-1.95));
#338=CARTESIAN_POINT('Ctrl Pts',(-5.83680239557571E-15,33.,-1.95));
#339=CARTESIAN_POINT('',(1.95,21.,0.));
#340=CARTESIAN_POINT('',(1.95,3.,-2.38806125833734E-16));
#341=CARTESIAN_POINT('Origin',(-2.86663054405167E-15,21.,0.));
#342=CARTESIAN_POINT('',(-6.66133814775094E-15,33.,1.95));
#343=CARTESIAN_POINT('Ctrl Pts',(-5.83680239557572E-15,33.,1.95));
#344=CARTESIAN_POINT('Ctrl Pts',(0.0553112980560143,32.9229100832468,1.95));
#345=CARTESIAN_POINT('Ctrl Pts',(0.119236675972452,32.8534447247356,1.9475662761169));
#346=CARTESIAN_POINT('Ctrl Pts',(0.298569261383547,32.6975449603363,1.9302233504047));
#347=CARTESIAN_POINT('Ctrl Pts',(0.450253860018927,32.6111684949073,1.90245793231782));
#348=CARTESIAN_POINT('Ctrl Pts',(0.704146648017849,32.5236032937966,1.82280015368416));
#349=CARTESIAN_POINT('Ctrl Pts',(0.835380899812415,32.5012790839553,1.76773656354624));
#350=CARTESIAN_POINT('Ctrl Pts',(1.08318941382125,32.4980335797458,1.62771450393266));
#351=CARTESIAN_POINT('Ctrl Pts',(1.19974326967511,32.5164829999208,1.54273521410389));
#352=CARTESIAN_POINT('Ctrl Pts',(1.50232102747293,32.6007293531221,1.27327048998299));
#353=CARTESIAN_POINT('Ctrl Pts',(1.66708295206205,32.7078123526801,1.04750209821939));
#354=CARTESIAN_POINT('Ctrl Pts',(1.8342990981772,32.8585791368793,0.675520259067046));
#355=CARTESIAN_POINT('Ctrl Pts',(1.87701758513311,32.9068133897615,0.545943827692718));
#356=CARTESIAN_POINT('Ctrl Pts',(1.93484062491239,32.9778680592345,0.27851784549624));
#357=CARTESIAN_POINT('Ctrl Pts',(1.94999999999999,33.,0.140497694552723));
#358=CARTESIAN_POINT('Ctrl Pts',(1.94999999999999,33.,-2.60208521396521E-16));
#359=CARTESIAN_POINT('',(-1.95000000000001,33.,0.));
#360=CARTESIAN_POINT('Ctrl Pts',(-1.95000000000001,33.,1.56125112837913E-16));
#361=CARTESIAN_POINT('Ctrl Pts',(-1.95000000000001,33.,0.140497694552722));
#362=CARTESIAN_POINT('Ctrl Pts',(-1.9348406249124,33.0221319407655,0.278517845496241));
#363=CARTESIAN_POINT('Ctrl Pts',(-1.87701758513312,33.0931866102385,0.54594382769272));
#364=CARTESIAN_POINT('Ctrl Pts',(-1.83429909817721,33.1414208631208,0.675520259067048));
#365=CARTESIAN_POINT('Ctrl Pts',(-1.66708295206206,33.2921876473199,1.04750209821939));
#366=CARTESIAN_POINT('Ctrl Pts',(-1.50232102747294,33.399270646878,1.27327048998299));
#367=CARTESIAN_POINT('Ctrl Pts',(-1.19974326967512,33.4835170000792,1.54273521410389));
#368=CARTESIAN_POINT('Ctrl Pts',(-1.08318941382126,33.5019664202542,1.62771450393266));
#369=CARTESIAN_POINT('Ctrl Pts',(-0.835380899812428,33.4987209160447,1.76773656354624));
#370=CARTESIAN_POINT('Ctrl Pts',(-0.704146648017863,33.4763967062034,1.82280015368416));
#371=CARTESIAN_POINT('Ctrl Pts',(-0.450253860018941,33.3888315050927,1.90245793231782));
#372=CARTESIAN_POINT('Ctrl Pts',(-0.298569261383561,33.3024550396637,1.9302233504047));
#373=CARTESIAN_POINT('Ctrl Pts',(-0.119236675972465,33.1465552752644,1.9475662761169));
#374=CARTESIAN_POINT('Ctrl Pts',(-0.055311298056026,33.0770899167532,1.95));
#375=CARTESIAN_POINT('Ctrl Pts',(-6.38649289702586E-15,33.,1.95));
#376=CARTESIAN_POINT('Ctrl Pts',(-6.38649289702586E-15,33.,-1.95));
#377=CARTESIAN_POINT('Ctrl Pts',(-0.0553112980560261,33.0770899167532,-1.95));
#378=CARTESIAN_POINT('Ctrl Pts',(-0.119236675972464,33.1465552752644,-1.9475662761169));
#379=CARTESIAN_POINT('Ctrl Pts',(-0.298569261383561,33.3024550396637,-1.9302233504047));
#380=CARTESIAN_POINT('Ctrl Pts',(-0.450253860018941,33.3888315050927,-1.90245793231782));
#381=CARTESIAN_POINT('Ctrl Pts',(-0.704146648017863,33.4763967062034,-1.82280015368416));
#382=CARTESIAN_POINT('Ctrl Pts',(-0.835380899812428,33.4987209160447,-1.76773656354624));
#383=CARTESIAN_POINT('Ctrl Pts',(-1.08318941382126,33.5019664202542,-1.62771450393266));
#384=CARTESIAN_POINT('Ctrl Pts',(-1.19974326967512,33.4835170000792,-1.54273521410389));
#385=CARTESIAN_POINT('Ctrl Pts',(-1.50232102747294,33.399270646878,-1.27327048998299));
#386=CARTESIAN_POINT('Ctrl Pts',(-1.66708295206206,33.2921876473199,-1.04750209821939));
#387=CARTESIAN_POINT('Ctrl Pts',(-1.83429909817721,33.1414208631208,-0.675520259067047));
#388=CARTESIAN_POINT('Ctrl Pts',(-1.87701758513312,33.0931866102385,-0.54594382769272));
#389=CARTESIAN_POINT('Ctrl Pts',(-1.9348406249124,33.0221319407655,-0.278517845496241));
#390=CARTESIAN_POINT('Ctrl Pts',(-1.95000000000001,33.,-0.140497694552722));
#391=CARTESIAN_POINT('Ctrl Pts',(-1.95000000000001,33.,-1.73472347597681E-16));
#392=CARTESIAN_POINT('Origin',(-0.975000000000006,32.3004465710183,-1.95));
#393=CARTESIAN_POINT('',(-6.66133814775094E-15,33.,-1.95));
#394=CARTESIAN_POINT('Origin',(0.974999999999992,33.6995534289817,-1.95));
#395=CARTESIAN_POINT('Origin',(-2.86663054405167E-15,20.5,0.));
#396=CARTESIAN_POINT('',(-3.25,20.,-3.9801020972289E-16));
#397=CARTESIAN_POINT('Origin',(-2.86663054405167E-15,20.,0.));
#398=CARTESIAN_POINT('',(-3.25,21.,-3.9801020972289E-16));
#399=CARTESIAN_POINT('',(-3.25,20.5,-3.9801020972289E-16));
#400=CARTESIAN_POINT('Origin',(-2.86663054405167E-15,21.,0.));
#401=CARTESIAN_POINT('Origin',(2.6,21.,0.));
#402=CARTESIAN_POINT('Origin',(3.25,0.,0.));
#403=CARTESIAN_POINT('',(-3.5,0.,-4.28626379701574E-16));
#404=CARTESIAN_POINT('Origin',(-2.46519032881566E-31,-5.55111512312578E-16,
0.));
#405=CARTESIAN_POINT('',(3.4,1.74860126378462E-16,-4.16366160299608E-16));
#406=CARTESIAN_POINT('Origin',(-3.08148791101958E-32,-4.85722573273506E-16,
0.));
#407=CARTESIAN_POINT('Origin',(3.4210395736306E-16,-2.,0.));
#408=CARTESIAN_POINT('',(-3.5,-4.,-4.28626379701574E-16));
#409=CARTESIAN_POINT('Origin',(6.8420791472612E-16,-4.,0.));
#410=CARTESIAN_POINT('',(-3.5,-2.,-4.28626379701574E-16));
#411=CARTESIAN_POINT('Origin',(1.75,-4.,0.));
#412=CARTESIAN_POINT('Origin',(-5.82867087928208E-17,0.3,0.));
#413=CARTESIAN_POINT('',(4.,0.600000000000001,4.89842541528951E-16));
#414=CARTESIAN_POINT('',(3.7,0.3,4.53119315684521E-16));
#415=CARTESIAN_POINT('',(-4.,0.600000000000001,-4.89858719658941E-16));
#416=CARTESIAN_POINT('Origin',(-1.16573417585642E-16,0.600000000000001,
0.));
#417=CARTESIAN_POINT('Origin',(-1.16573417585642E-16,0.600000000000001,
0.));
#418=CARTESIAN_POINT('Origin',(-1.70002900645727E-15,8.75,0.));
#419=CARTESIAN_POINT('',(-4.,16.9,-4.89858719658941E-16));
#420=CARTESIAN_POINT('',(-4.,8.75,-4.89858719658941E-16));
#421=CARTESIAN_POINT('',(3.99999999999999,16.9,-4.89842541528951E-16));
#422=CARTESIAN_POINT('Origin',(-3.2834845953289E-15,16.9,0.));
#423=CARTESIAN_POINT('Origin',(-3.2834845953289E-15,16.9,0.));
#424=CARTESIAN_POINT('Origin',(-3.34177130412172E-15,17.2,0.));
#425=CARTESIAN_POINT('',(3.39999999999999,17.5,0.));
#426=CARTESIAN_POINT('',(3.69999999999999,17.2,4.5311931568452E-16));
#427=CARTESIAN_POINT('',(-3.4,17.5,-4.16379911710099E-16));
#428=CARTESIAN_POINT('Origin',(-3.40005801291454E-15,17.5,0.));
#429=CARTESIAN_POINT('Origin',(-3.40005801291454E-15,17.5,0.));
#430=CARTESIAN_POINT('Origin',(3.19999999999999,20.,0.));
#431=CARTESIAN_POINT('',(-3.4,20.,-4.16379911710099E-16));
#432=CARTESIAN_POINT('Origin',(-3.88578058618805E-15,20.,0.));
#433=CARTESIAN_POINT('Origin',(-3.64291929955129E-15,18.75,0.));
#434=CARTESIAN_POINT('',(-3.4,18.75,-4.16379911710099E-16));
#435=UNCERTAINTY_MEASURE_WITH_UNIT(LENGTH_MEASURE(0.01),#439,
'DISTANCE_ACCURACY_VALUE',
'Maximum model space distance between geometric entities at asserted c
onnectivities');
#436=UNCERTAINTY_MEASURE_WITH_UNIT(LENGTH_MEASURE(0.01),#439,
'DISTANCE_ACCURACY_VALUE',
'Maximum model space distance between geometric entities at asserted c
onnectivities');
#437=(
GEOMETRIC_REPRESENTATION_CONTEXT(3)
GLOBAL_UNCERTAINTY_ASSIGNED_CONTEXT((#435))
GLOBAL_UNIT_ASSIGNED_CONTEXT((#439,#441,#442))
REPRESENTATION_CONTEXT('','3D')
);
#438=(
GEOMETRIC_REPRESENTATION_CONTEXT(3)
GLOBAL_UNCERTAINTY_ASSIGNED_CONTEXT((#436))
GLOBAL_UNIT_ASSIGNED_CONTEXT((#439,#441,#442))
REPRESENTATION_CONTEXT('','3D')
);
#439=(
LENGTH_UNIT()
NAMED_UNIT(*)
SI_UNIT(.MILLI.,.METRE.)
);
#440=(
LENGTH_UNIT()
NAMED_UNIT(*)
SI_UNIT(.CENTI.,.METRE.)
);
#441=(
NAMED_UNIT(*)
PLANE_ANGLE_UNIT()
SI_UNIT($,.RADIAN.)
);
#442=(
NAMED_UNIT(*)
SI_UNIT($,.STERADIAN.)
SOLID_ANGLE_UNIT()
);
#443=SHAPE_DEFINITION_REPRESENTATION(#444,#445);
#444=PRODUCT_DEFINITION_SHAPE('',$,#447);
#445=SHAPE_REPRESENTATION('',(#230),#437);
#446=PRODUCT_DEFINITION_CONTEXT('part definition',#451,'design');
#447=PRODUCT_DEFINITION('400490_Shrinkwrap_1','400490_Shrinkwrap_1',#448,
#446);
#448=PRODUCT_DEFINITION_FORMATION('',$,#453);
#449=PRODUCT_RELATED_PRODUCT_CATEGORY('400490_Shrinkwrap_1',
'400490_Shrinkwrap_1',(#453));
#450=APPLICATION_PROTOCOL_DEFINITION('international standard',
'automotive_design',2009,#451);
#451=APPLICATION_CONTEXT(
'Core Data for Automotive Mechanical Design Process');
#452=PRODUCT_CONTEXT('part definition',#451,'mechanical');
#453=PRODUCT('400490_Shrinkwrap_1','400490_Shrinkwrap_1',$,(#452));
#454=PRESENTATION_STYLE_ASSIGNMENT((#459));
#455=PRESENTATION_STYLE_ASSIGNMENT((#460));
#456=PRESENTATION_STYLE_ASSIGNMENT((#461));
#457=PRESENTATION_STYLE_ASSIGNMENT((#462));
#458=PRESENTATION_STYLE_ASSIGNMENT((#463));
#459=SURFACE_STYLE_USAGE(.BOTH.,#474);
#460=SURFACE_STYLE_USAGE(.BOTH.,#475);
#461=SURFACE_STYLE_USAGE(.BOTH.,#476);
#462=SURFACE_STYLE_USAGE(.BOTH.,#477);
#463=SURFACE_STYLE_USAGE(.BOTH.,#478);
#464=SURFACE_STYLE_RENDERING_WITH_PROPERTIES($,#494,(#469));
#465=SURFACE_STYLE_RENDERING_WITH_PROPERTIES($,#495,(#470));
#466=SURFACE_STYLE_RENDERING_WITH_PROPERTIES($,#496,(#471));
#467=SURFACE_STYLE_RENDERING_WITH_PROPERTIES($,#497,(#472));
#468=SURFACE_STYLE_RENDERING_WITH_PROPERTIES($,#498,(#473));
#469=SURFACE_STYLE_TRANSPARENT(0.);
#470=SURFACE_STYLE_TRANSPARENT(0.);
#471=SURFACE_STYLE_TRANSPARENT(0.);
#472=SURFACE_STYLE_TRANSPARENT(0.);
#473=SURFACE_STYLE_TRANSPARENT(0.);
#474=SURFACE_SIDE_STYLE('',(#479,#464));
#475=SURFACE_SIDE_STYLE('',(#480,#465));
#476=SURFACE_SIDE_STYLE('',(#481,#466));
#477=SURFACE_SIDE_STYLE('',(#482,#467));
#478=SURFACE_SIDE_STYLE('',(#483,#468));
#479=SURFACE_STYLE_FILL_AREA(#484);
#480=SURFACE_STYLE_FILL_AREA(#485);
#481=SURFACE_STYLE_FILL_AREA(#486);
#482=SURFACE_STYLE_FILL_AREA(#487);
#483=SURFACE_STYLE_FILL_AREA(#488);
#484=FILL_AREA_STYLE('',(#489));
#485=FILL_AREA_STYLE('',(#490));
#486=FILL_AREA_STYLE('',(#491));
#487=FILL_AREA_STYLE('',(#492));
#488=FILL_AREA_STYLE('',(#493));
#489=FILL_AREA_STYLE_COLOUR('',#494);
#490=FILL_AREA_STYLE_COLOUR('',#495);
#491=FILL_AREA_STYLE_COLOUR('',#496);
#492=FILL_AREA_STYLE_COLOUR('',#497);
#493=FILL_AREA_STYLE_COLOUR('',#498);
#494=COLOUR_RGB('',0.749019607843137,0.749019607843137,0.749019607843137);
#495=COLOUR_RGB('',0.,0.,1.);
#496=COLOUR_RGB('',0.494117647058824,0.494117647058824,0.505882352941176);
#497=COLOUR_RGB('',1.,1.,1.);
#498=COLOUR_RGB('',0.63921568627451,0.63921568627451,0.662745098039216);
ENDSEC;
END-ISO-10303-21;
