ISO-10303-21;
HEADER;
/* Generated by software containing ST-Developer
 * from STEP Tools, Inc. (www.steptools.com) 
 */

FILE_DESCRIPTION(
/* description */ (''),
/* implementation_level */ '2;1');

FILE_NAME(
/* name */ 
'E:\\Allgemein\\Inventor Pojekte\\Ger\X\E4te\\400480_Shrinkwrap_1.stp',

/* time_stamp */ '2021-08-18T16:07:08+02:00',
/* author */ ('Krieger Anja'),
/* organization */ (''),
/* preprocessor_version */ 'ST-DEVELOPER v18.1',
/* originating_system */ 'Autodesk Inventor 2021',
/* authorisation */ '');

FILE_SCHEMA (('AUTOMOTIVE_DESIGN { 1 0 10303 214 3 1 1 }'));
ENDSEC;

DATA;
#10=MECHANICAL_DESIGN_GEOMETRIC_PRESENTATION_REPRESENTATION('',(#84,#85,
#86,#87,#88,#89,#90),#236);
#11=SHAPE_REPRESENTATION_RELATIONSHIP('SRR','None',#243,#12);
#12=ADVANCED_BREP_SHAPE_REPRESENTATION('',(#13),#235);
#13=MANIFOLD_SOLID_BREP('Volumenk\X\F6rper1',#97);
#14=FACE_BOUND('',#27,.T.);
#15=PLANE('',#121);
#16=PLANE('',#123);
#17=FACE_OUTER_BOUND('',#23,.T.);
#18=FACE_OUTER_BOUND('',#24,.T.);
#19=FACE_OUTER_BOUND('',#25,.T.);
#20=FACE_OUTER_BOUND('',#26,.T.);
#21=FACE_OUTER_BOUND('',#28,.T.);
#22=FACE_OUTER_BOUND('',#29,.T.);
#23=EDGE_LOOP('',(#60,#61,#62,#63,#64,#65,#66));
#24=EDGE_LOOP('',(#67,#68,#69));
#25=EDGE_LOOP('',(#70,#71,#72));
#26=EDGE_LOOP('',(#73));
#27=EDGE_LOOP('',(#74));
#28=EDGE_LOOP('',(#75));
#29=EDGE_LOOP('',(#76,#77,#78,#79));
#30=CIRCLE('',#118,1.95);
#31=CIRCLE('',#122,3.25);
#32=CIRCLE('',#124,3.25);
#33=LINE('',#170,#36);
#34=LINE('',#223,#37);
#35=LINE('',#232,#38);
#36=VECTOR('',#130,1.95);
#37=VECTOR('',#135,10.);
#38=VECTOR('',#148,3.25);
#39=B_SPLINE_CURVE_WITH_KNOTS('',3,(#153,#154,#155,#156,#157,#158,#159,
#160,#161,#162,#163,#164,#165,#166,#167,#168),.UNSPECIFIED.,.F.,.F.,(4,
2,2,2,2,2,2,4),(0.391534172365443,0.433683480731259,0.475832789097076,0.56013140582871,
0.599984223474009,0.639837041119308,0.684024164303501,0.711313695225399),
 .UNSPECIFIED.);
#40=B_SPLINE_CURVE_WITH_KNOTS('',3,(#173,#174,#175,#176,#177,#178,#179,
#180,#181,#182,#183,#184,#185,#186,#187,#188),.UNSPECIFIED.,.F.,.F.,(4,
2,2,2,2,2,2,4),(0.0717546495054865,0.0990441804273839,0.143231303611577,
0.183084121256876,0.222936938902175,0.307235555633809,0.349384863999626,
0.391534172365443),.UNSPECIFIED.);
#41=B_SPLINE_CURVE_WITH_KNOTS('',3,(#190,#191,#192,#193,#194,#195,#196,
#197,#198,#199,#200,#201,#202,#203,#204,#205),.UNSPECIFIED.,.F.,.F.,(4,
2,2,2,2,2,2,4),(1.17460251709633,1.21675182546214,1.25890113382796,1.34319975055959,
1.38305256820489,1.42290538585019,1.46709250903439,1.49438203995628),
 .UNSPECIFIED.);
#42=B_SPLINE_CURVE_WITH_KNOTS('',3,(#206,#207,#208,#209,#210,#211,#212,
#213,#214,#215,#216,#217,#218,#219,#220,#221),.UNSPECIFIED.,.F.,.F.,(4,
2,2,2,2,2,2,4),(0.854822994236371,0.882112525158268,0.926299648342461,0.966152465987761,
1.00600528363306,1.09030390036469,1.13245320873051,1.17460251709633),
 .UNSPECIFIED.);
#43=VERTEX_POINT('',#151);
#44=VERTEX_POINT('',#152);
#45=VERTEX_POINT('',#169);
#46=VERTEX_POINT('',#172);
#47=VERTEX_POINT('',#189);
#48=VERTEX_POINT('',#226);
#49=VERTEX_POINT('',#229);
#50=EDGE_CURVE('',#43,#44,#39,.T.);
#51=EDGE_CURVE('',#43,#45,#33,.T.);
#52=EDGE_CURVE('',#45,#45,#30,.T.);
#53=EDGE_CURVE('',#46,#43,#40,.T.);
#54=EDGE_CURVE('',#47,#46,#41,.T.);
#55=EDGE_CURVE('',#44,#47,#42,.T.);
#56=EDGE_CURVE('',#44,#46,#34,.T.);
#57=EDGE_CURVE('',#48,#48,#31,.T.);
#58=EDGE_CURVE('',#49,#49,#32,.T.);
#59=EDGE_CURVE('',#49,#48,#35,.T.);
#60=ORIENTED_EDGE('',*,*,#50,.F.);
#61=ORIENTED_EDGE('',*,*,#51,.T.);
#62=ORIENTED_EDGE('',*,*,#52,.F.);
#63=ORIENTED_EDGE('',*,*,#51,.F.);
#64=ORIENTED_EDGE('',*,*,#53,.F.);
#65=ORIENTED_EDGE('',*,*,#54,.F.);
#66=ORIENTED_EDGE('',*,*,#55,.F.);
#67=ORIENTED_EDGE('',*,*,#55,.T.);
#68=ORIENTED_EDGE('',*,*,#54,.T.);
#69=ORIENTED_EDGE('',*,*,#56,.F.);
#70=ORIENTED_EDGE('',*,*,#50,.T.);
#71=ORIENTED_EDGE('',*,*,#56,.T.);
#72=ORIENTED_EDGE('',*,*,#53,.T.);
#73=ORIENTED_EDGE('',*,*,#57,.F.);
#74=ORIENTED_EDGE('',*,*,#52,.T.);
#75=ORIENTED_EDGE('',*,*,#58,.T.);
#76=ORIENTED_EDGE('',*,*,#58,.F.);
#77=ORIENTED_EDGE('',*,*,#59,.T.);
#78=ORIENTED_EDGE('',*,*,#57,.T.);
#79=ORIENTED_EDGE('',*,*,#59,.F.);
#80=CYLINDRICAL_SURFACE('',#117,1.95);
#81=CYLINDRICAL_SURFACE('',#119,1.2);
#82=CYLINDRICAL_SURFACE('',#120,1.2);
#83=CYLINDRICAL_SURFACE('',#125,3.25);
#84=STYLED_ITEM('',(#253),#91);
#85=STYLED_ITEM('',(#253),#92);
#86=STYLED_ITEM('',(#253),#93);
#87=STYLED_ITEM('',(#254),#94);
#88=STYLED_ITEM('',(#255),#95);
#89=STYLED_ITEM('',(#254),#96);
#90=STYLED_ITEM('',(#252),#13);
#91=ADVANCED_FACE('',(#17),#80,.T.);
#92=ADVANCED_FACE('',(#18),#81,.T.);
#93=ADVANCED_FACE('',(#19),#82,.F.);
#94=ADVANCED_FACE('',(#20,#14),#15,.T.);
#95=ADVANCED_FACE('',(#21),#16,.T.);
#96=ADVANCED_FACE('',(#22),#83,.T.);
#97=CLOSED_SHELL('',(#91,#92,#93,#94,#95,#96));
#98=DERIVED_UNIT_ELEMENT(#100,1.);
#99=DERIVED_UNIT_ELEMENT(#238,3.);
#100=(
MASS_UNIT()
NAMED_UNIT(*)
SI_UNIT($,.GRAM.)
);
#101=DERIVED_UNIT((#98,#99));
#102=MEASURE_REPRESENTATION_ITEM('density measure',
POSITIVE_RATIO_MEASURE(1.),#101);
#103=PROPERTY_DEFINITION_REPRESENTATION(#108,#105);
#104=PROPERTY_DEFINITION_REPRESENTATION(#109,#106);
#105=REPRESENTATION('material name',(#107),#235);
#106=REPRESENTATION('density',(#102),#235);
#107=DESCRIPTIVE_REPRESENTATION_ITEM('Allgemein','Allgemein');
#108=PROPERTY_DEFINITION('material property','material name',#245);
#109=PROPERTY_DEFINITION('material property','density of part',#245);
#110=DATE_TIME_ROLE('creation_date');
#111=APPLIED_DATE_AND_TIME_ASSIGNMENT(#112,#110,(#245));
#112=DATE_AND_TIME(#113,#114);
#113=CALENDAR_DATE(2021,18,8);
#114=LOCAL_TIME(0,0,0.,#115);
#115=COORDINATED_UNIVERSAL_TIME_OFFSET(0,0,.BEHIND.);
#116=AXIS2_PLACEMENT_3D('placement',#149,#126,#127);
#117=AXIS2_PLACEMENT_3D('',#150,#128,#129);
#118=AXIS2_PLACEMENT_3D('',#171,#131,#132);
#119=AXIS2_PLACEMENT_3D('',#222,#133,#134);
#120=AXIS2_PLACEMENT_3D('',#224,#136,#137);
#121=AXIS2_PLACEMENT_3D('',#225,#138,#139);
#122=AXIS2_PLACEMENT_3D('',#227,#140,#141);
#123=AXIS2_PLACEMENT_3D('',#228,#142,#143);
#124=AXIS2_PLACEMENT_3D('',#230,#144,#145);
#125=AXIS2_PLACEMENT_3D('',#231,#146,#147);
#126=DIRECTION('axis',(0.,0.,1.));
#127=DIRECTION('refdir',(1.,0.,0.));
#128=DIRECTION('center_axis',(-1.21430643318376E-16,1.,0.));
#129=DIRECTION('ref_axis',(-1.,-1.21430643318376E-16,0.));
#130=DIRECTION('',(1.21430643318376E-16,-1.,0.));
#131=DIRECTION('center_axis',(0.,-1.,0.));
#132=DIRECTION('ref_axis',(1.,0.,0.));
#133=DIRECTION('center_axis',(0.,0.,1.));
#134=DIRECTION('ref_axis',(-0.8125,-0.582961190818051,0.));
#135=DIRECTION('',(0.,0.,1.));
#136=DIRECTION('center_axis',(0.,0.,1.));
#137=DIRECTION('ref_axis',(-0.812499999999998,-0.582961190818054,0.));
#138=DIRECTION('center_axis',(0.,1.,0.));
#139=DIRECTION('ref_axis',(0.,0.,1.));
#140=DIRECTION('center_axis',(0.,-1.,0.));
#141=DIRECTION('ref_axis',(1.,0.,0.));
#142=DIRECTION('center_axis',(1.62076586754546E-16,-1.,0.));
#143=DIRECTION('ref_axis',(0.,0.,-1.));
#144=DIRECTION('center_axis',(1.62076586754546E-16,-1.,0.));
#145=DIRECTION('ref_axis',(1.,0.,0.));
#146=DIRECTION('center_axis',(1.85037170770859E-16,-1.,0.));
#147=DIRECTION('ref_axis',(1.,0.,0.));
#148=DIRECTION('',(-1.85037170770859E-16,1.,0.));
#149=CARTESIAN_POINT('',(0.,0.,0.));
#150=CARTESIAN_POINT('Origin',(-2.4980018054066E-15,-2.,0.));
#151=CARTESIAN_POINT('',(1.94999999999999,28.,0.));
#152=CARTESIAN_POINT('',(-6.10622663543836E-15,28.,-1.95));
#153=CARTESIAN_POINT('Ctrl Pts',(1.94999999999999,28.,1.21430643318376E-16));
#154=CARTESIAN_POINT('Ctrl Pts',(1.94999999999999,28.,-0.140497694552722));
#155=CARTESIAN_POINT('Ctrl Pts',(1.93484062491239,27.9778680592345,-0.27851784549624));
#156=CARTESIAN_POINT('Ctrl Pts',(1.87701758513311,27.9068133897615,-0.545943827692718));
#157=CARTESIAN_POINT('Ctrl Pts',(1.8342990981772,27.8585791368793,-0.675520259067046));
#158=CARTESIAN_POINT('Ctrl Pts',(1.66708295206205,27.7078123526801,-1.04750209821939));
#159=CARTESIAN_POINT('Ctrl Pts',(1.50232102747293,27.6007293531221,-1.27327048998299));
#160=CARTESIAN_POINT('Ctrl Pts',(1.19974326967511,27.5164829999208,-1.54273521410389));
#161=CARTESIAN_POINT('Ctrl Pts',(1.08318941382125,27.4980335797458,-1.62771450393266));
#162=CARTESIAN_POINT('Ctrl Pts',(0.835380899812416,27.5012790839553,-1.76773656354624));
#163=CARTESIAN_POINT('Ctrl Pts',(0.70414664801785,27.5236032937966,-1.82280015368416));
#164=CARTESIAN_POINT('Ctrl Pts',(0.450253860018928,27.6111684949073,-1.90245793231783));
#165=CARTESIAN_POINT('Ctrl Pts',(0.298569261383548,27.6975449603363,-1.9302233504047));
#166=CARTESIAN_POINT('Ctrl Pts',(0.119236675972452,27.8534447247356,-1.9475662761169));
#167=CARTESIAN_POINT('Ctrl Pts',(0.0553112980560175,27.9229100832468,-1.95));
#168=CARTESIAN_POINT('Ctrl Pts',(-5.28169088326313E-15,28.,-1.95));
#169=CARTESIAN_POINT('',(1.95,16.,0.));
#170=CARTESIAN_POINT('',(1.95,-2.,-2.38806125833734E-16));
#171=CARTESIAN_POINT('Origin',(-2.77555756156289E-15,16.,0.));
#172=CARTESIAN_POINT('',(-6.10622663543836E-15,28.,1.95));
#173=CARTESIAN_POINT('Ctrl Pts',(-5.28169088326314E-15,28.,1.95));
#174=CARTESIAN_POINT('Ctrl Pts',(0.0553112980560149,27.9229100832468,1.95));
#175=CARTESIAN_POINT('Ctrl Pts',(0.119236675972452,27.8534447247356,1.9475662761169));
#176=CARTESIAN_POINT('Ctrl Pts',(0.298569261383547,27.6975449603363,1.9302233504047));
#177=CARTESIAN_POINT('Ctrl Pts',(0.450253860018927,27.6111684949073,1.90245793231782));
#178=CARTESIAN_POINT('Ctrl Pts',(0.704146648017849,27.5236032937966,1.82280015368416));
#179=CARTESIAN_POINT('Ctrl Pts',(0.835380899812416,27.5012790839553,1.76773656354624));
#180=CARTESIAN_POINT('Ctrl Pts',(1.08318941382125,27.4980335797458,1.62771450393266));
#181=CARTESIAN_POINT('Ctrl Pts',(1.19974326967511,27.5164829999208,1.54273521410389));
#182=CARTESIAN_POINT('Ctrl Pts',(1.50232102747293,27.6007293531221,1.27327048998299));
#183=CARTESIAN_POINT('Ctrl Pts',(1.66708295206205,27.7078123526801,1.04750209821939));
#184=CARTESIAN_POINT('Ctrl Pts',(1.8342990981772,27.8585791368793,0.675520259067046));
#185=CARTESIAN_POINT('Ctrl Pts',(1.87701758513311,27.9068133897615,0.545943827692718));
#186=CARTESIAN_POINT('Ctrl Pts',(1.93484062491239,27.9778680592345,0.27851784549624));
#187=CARTESIAN_POINT('Ctrl Pts',(1.94999999999999,28.,0.140497694552723));
#188=CARTESIAN_POINT('Ctrl Pts',(1.94999999999999,28.,-2.42861286636753E-16));
#189=CARTESIAN_POINT('',(-1.95000000000001,28.,0.));
#190=CARTESIAN_POINT('Ctrl Pts',(-1.95000000000001,28.,5.20417042793042E-17));
#191=CARTESIAN_POINT('Ctrl Pts',(-1.95000000000001,28.,0.140497694552722));
#192=CARTESIAN_POINT('Ctrl Pts',(-1.9348406249124,28.0221319407655,0.278517845496241));
#193=CARTESIAN_POINT('Ctrl Pts',(-1.87701758513312,28.0931866102385,0.54594382769272));
#194=CARTESIAN_POINT('Ctrl Pts',(-1.83429909817721,28.1414208631208,0.675520259067048));
#195=CARTESIAN_POINT('Ctrl Pts',(-1.66708295206206,28.2921876473199,1.04750209821939));
#196=CARTESIAN_POINT('Ctrl Pts',(-1.50232102747294,28.399270646878,1.27327048998299));
#197=CARTESIAN_POINT('Ctrl Pts',(-1.19974326967512,28.4835170000792,1.54273521410389));
#198=CARTESIAN_POINT('Ctrl Pts',(-1.08318941382126,28.5019664202542,1.62771450393266));
#199=CARTESIAN_POINT('Ctrl Pts',(-0.835380899812427,28.4987209160447,1.76773656354624));
#200=CARTESIAN_POINT('Ctrl Pts',(-0.704146648017862,28.4763967062034,1.82280015368416));
#201=CARTESIAN_POINT('Ctrl Pts',(-0.45025386001894,28.3888315050927,1.90245793231782));
#202=CARTESIAN_POINT('Ctrl Pts',(-0.29856926138356,28.3024550396637,1.9302233504047));
#203=CARTESIAN_POINT('Ctrl Pts',(-0.119236675972464,28.1465552752644,1.9475662761169));
#204=CARTESIAN_POINT('Ctrl Pts',(-0.0553112980560255,28.0770899167532,1.95));
#205=CARTESIAN_POINT('Ctrl Pts',(-5.83138138471329E-15,28.,1.95));
#206=CARTESIAN_POINT('Ctrl Pts',(-5.83138138471329E-15,28.,-1.95));
#207=CARTESIAN_POINT('Ctrl Pts',(-0.0553112980560256,28.0770899167532,-1.95));
#208=CARTESIAN_POINT('Ctrl Pts',(-0.119236675972464,28.1465552752644,-1.9475662761169));
#209=CARTESIAN_POINT('Ctrl Pts',(-0.29856926138356,28.3024550396637,-1.9302233504047));
#210=CARTESIAN_POINT('Ctrl Pts',(-0.45025386001894,28.3888315050927,-1.90245793231782));
#211=CARTESIAN_POINT('Ctrl Pts',(-0.704146648017862,28.4763967062034,-1.82280015368416));
#212=CARTESIAN_POINT('Ctrl Pts',(-0.835380899812427,28.4987209160447,-1.76773656354624));
#213=CARTESIAN_POINT('Ctrl Pts',(-1.08318941382126,28.5019664202542,-1.62771450393266));
#214=CARTESIAN_POINT('Ctrl Pts',(-1.19974326967512,28.4835170000792,-1.54273521410389));
#215=CARTESIAN_POINT('Ctrl Pts',(-1.50232102747294,28.399270646878,-1.27327048998299));
#216=CARTESIAN_POINT('Ctrl Pts',(-1.66708295206206,28.2921876473199,-1.04750209821939));
#217=CARTESIAN_POINT('Ctrl Pts',(-1.83429909817721,28.1414208631208,-0.675520259067047));
#218=CARTESIAN_POINT('Ctrl Pts',(-1.87701758513312,28.0931866102385,-0.54594382769272));
#219=CARTESIAN_POINT('Ctrl Pts',(-1.9348406249124,28.0221319407655,-0.278517845496241));
#220=CARTESIAN_POINT('Ctrl Pts',(-1.95000000000001,28.,-0.140497694552722));
#221=CARTESIAN_POINT('Ctrl Pts',(-1.95000000000001,28.,-3.46944695195361E-17));
#222=CARTESIAN_POINT('Origin',(-0.975000000000006,27.3004465710183,-1.95));
#223=CARTESIAN_POINT('',(-6.10622663543836E-15,28.,-1.95));
#224=CARTESIAN_POINT('Origin',(0.974999999999993,28.6995534289817,-1.95));
#225=CARTESIAN_POINT('Origin',(2.6,16.,0.));
#226=CARTESIAN_POINT('',(-3.25,16.,-3.9801020972289E-16));
#227=CARTESIAN_POINT('Origin',(-2.77555756156289E-15,16.,0.));
#228=CARTESIAN_POINT('Origin',(1.625,-5.,0.));
#229=CARTESIAN_POINT('',(-3.25,-5.,-3.9801020972289E-16));
#230=CARTESIAN_POINT('Origin',(8.10382933772728E-16,-5.,0.));
#231=CARTESIAN_POINT('Origin',(-1.38777878078145E-15,7.5,0.));
#232=CARTESIAN_POINT('',(-3.25,7.5,-3.9801020972289E-16));
#233=UNCERTAINTY_MEASURE_WITH_UNIT(LENGTH_MEASURE(0.01),#237,
'DISTANCE_ACCURACY_VALUE',
'Maximum model space distance between geometric entities at asserted c
onnectivities');
#234=UNCERTAINTY_MEASURE_WITH_UNIT(LENGTH_MEASURE(0.01),#237,
'DISTANCE_ACCURACY_VALUE',
'Maximum model space distance between geometric entities at asserted c
onnectivities');
#235=(
GEOMETRIC_REPRESENTATION_CONTEXT(3)
GLOBAL_UNCERTAINTY_ASSIGNED_CONTEXT((#233))
GLOBAL_UNIT_ASSIGNED_CONTEXT((#237,#239,#240))
REPRESENTATION_CONTEXT('','3D')
);
#236=(
GEOMETRIC_REPRESENTATION_CONTEXT(3)
GLOBAL_UNCERTAINTY_ASSIGNED_CONTEXT((#234))
GLOBAL_UNIT_ASSIGNED_CONTEXT((#237,#239,#240))
REPRESENTATION_CONTEXT('','3D')
);
#237=(
LENGTH_UNIT()
NAMED_UNIT(*)
SI_UNIT(.MILLI.,.METRE.)
);
#238=(
LENGTH_UNIT()
NAMED_UNIT(*)
SI_UNIT(.CENTI.,.METRE.)
);
#239=(
NAMED_UNIT(*)
PLANE_ANGLE_UNIT()
SI_UNIT($,.RADIAN.)
);
#240=(
NAMED_UNIT(*)
SI_UNIT($,.STERADIAN.)
SOLID_ANGLE_UNIT()
);
#241=SHAPE_DEFINITION_REPRESENTATION(#242,#243);
#242=PRODUCT_DEFINITION_SHAPE('',$,#245);
#243=SHAPE_REPRESENTATION('',(#116),#235);
#244=PRODUCT_DEFINITION_CONTEXT('part definition',#249,'design');
#245=PRODUCT_DEFINITION('400480_Shrinkwrap_1','400480_Shrinkwrap_1',#246,
#244);
#246=PRODUCT_DEFINITION_FORMATION('',$,#251);
#247=PRODUCT_RELATED_PRODUCT_CATEGORY('400480_Shrinkwrap_1',
'400480_Shrinkwrap_1',(#251));
#248=APPLICATION_PROTOCOL_DEFINITION('international standard',
'automotive_design',2009,#249);
#249=APPLICATION_CONTEXT(
'Core Data for Automotive Mechanical Design Process');
#250=PRODUCT_CONTEXT('part definition',#249,'mechanical');
#251=PRODUCT('400480_Shrinkwrap_1','400480_Shrinkwrap_1',$,(#250));
#252=PRESENTATION_STYLE_ASSIGNMENT((#256));
#253=PRESENTATION_STYLE_ASSIGNMENT((#257));
#254=PRESENTATION_STYLE_ASSIGNMENT((#258));
#255=PRESENTATION_STYLE_ASSIGNMENT((#259));
#256=SURFACE_STYLE_USAGE(.BOTH.,#268);
#257=SURFACE_STYLE_USAGE(.BOTH.,#269);
#258=SURFACE_STYLE_USAGE(.BOTH.,#270);
#259=SURFACE_STYLE_USAGE(.BOTH.,#271);
#260=SURFACE_STYLE_RENDERING_WITH_PROPERTIES($,#284,(#264));
#261=SURFACE_STYLE_RENDERING_WITH_PROPERTIES($,#285,(#265));
#262=SURFACE_STYLE_RENDERING_WITH_PROPERTIES($,#286,(#266));
#263=SURFACE_STYLE_RENDERING_WITH_PROPERTIES($,#287,(#267));
#264=SURFACE_STYLE_TRANSPARENT(0.);
#265=SURFACE_STYLE_TRANSPARENT(0.);
#266=SURFACE_STYLE_TRANSPARENT(0.);
#267=SURFACE_STYLE_TRANSPARENT(0.);
#268=SURFACE_SIDE_STYLE('',(#272,#260));
#269=SURFACE_SIDE_STYLE('',(#273,#261));
#270=SURFACE_SIDE_STYLE('',(#274,#262));
#271=SURFACE_SIDE_STYLE('',(#275,#263));
#272=SURFACE_STYLE_FILL_AREA(#276);
#273=SURFACE_STYLE_FILL_AREA(#277);
#274=SURFACE_STYLE_FILL_AREA(#278);
#275=SURFACE_STYLE_FILL_AREA(#279);
#276=FILL_AREA_STYLE('',(#280));
#277=FILL_AREA_STYLE('',(#281));
#278=FILL_AREA_STYLE('',(#282));
#279=FILL_AREA_STYLE('',(#283));
#280=FILL_AREA_STYLE_COLOUR('',#284);
#281=FILL_AREA_STYLE_COLOUR('',#285);
#282=FILL_AREA_STYLE_COLOUR('',#286);
#283=FILL_AREA_STYLE_COLOUR('',#287);
#284=COLOUR_RGB('',0.749019607843137,0.749019607843137,0.749019607843137);
#285=COLOUR_RGB('',0.,0.,1.);
#286=COLOUR_RGB('',0.450980392156863,0.450980392156863,0.450980392156863);
#287=COLOUR_RGB('',1.,1.,1.);
ENDSEC;
END-ISO-10303-21;
