ISO-10303-21;
HEADER;
/* Generated by software containing ST-Developer
 * from STEP Tools, Inc. (www.steptools.com) 
 */

FILE_DESCRIPTION(
/* description */ (''),
/* implementation_level */ '2;1');

FILE_NAME(
/* name */ 
'E:\\Allgemein\\Inventor Pojekte\\Ger\X\E4te\\400100_Shrinkwrap_1.stp',

/* time_stamp */ '2021-12-21T10:02:31+01:00',
/* author */ ('Krieger Anja'),
/* organization */ (''),
/* preprocessor_version */ 'ST-DEVELOPER v18.1',
/* originating_system */ 'Autodesk Inventor 2021',
/* authorisation */ '');

FILE_SCHEMA (('AUTOMOTIVE_DESIGN { 1 0 10303 214 3 1 1 }'));
ENDSEC;

DATA;
#10=MECHANICAL_DESIGN_GEOMETRIC_PRESENTATION_REPRESENTATION('',(#202,#203,
#204,#205,#206,#207,#208,#209,#210,#211,#212,#213,#214,#215,#216),#474);
#11=SHAPE_REPRESENTATION_RELATIONSHIP('SRR','None',#481,#12);
#12=ADVANCED_BREP_SHAPE_REPRESENTATION('',(#13),#473);
#13=MANIFOLD_SOLID_BREP('Volumenk\X\F6rper1',#231);
#14=B_SPLINE_CURVE_WITH_KNOTS('',3,(#401,#402,#403,#404,#405,#406,#407,
#408,#409,#410,#411,#412,#413,#414,#415,#416),.UNSPECIFIED.,.F.,.F.,(4,
2,2,2,2,2,2,4),(0.391534172365443,0.433683480731259,0.475832789097076,0.56013140582871,
0.599984223474009,0.639837041119308,0.684024164303501,0.711313695225399),
 .UNSPECIFIED.);
#15=B_SPLINE_CURVE_WITH_KNOTS('',3,(#419,#420,#421,#422,#423,#424,#425,
#426,#427,#428,#429,#430,#431,#432,#433,#434),.UNSPECIFIED.,.F.,.F.,(4,
2,2,2,2,2,2,4),(0.0717546495054865,0.0990441804273839,0.143231303611577,
0.183084121256876,0.222936938902175,0.307235555633809,0.349384863999626,
0.391534172365443),.UNSPECIFIED.);
#16=B_SPLINE_CURVE_WITH_KNOTS('',3,(#437,#438,#439,#440,#441,#442,#443,
#444,#445,#446,#447,#448,#449,#450,#451,#452),.UNSPECIFIED.,.F.,.F.,(4,
2,2,2,2,2,2,4),(0.854822994236371,0.882112525158268,0.926299648342461,0.966152465987761,
1.00600528363306,1.09030390036469,1.13245320873051,1.17460251709633),
 .UNSPECIFIED.);
#17=B_SPLINE_CURVE_WITH_KNOTS('',3,(#453,#454,#455,#456,#457,#458,#459,
#460,#461,#462,#463,#464,#465,#466,#467,#468),.UNSPECIFIED.,.F.,.F.,(4,
2,2,2,2,2,2,4),(1.17460251709633,1.21675182546214,1.25890113382796,1.34319975055959,
1.38305256820489,1.42290538585019,1.46709250903439,1.49438203995628),
 .UNSPECIFIED.);
#18=CONICAL_SURFACE('',#261,3.625,0.785398163397447);
#19=CONICAL_SURFACE('',#269,3.625,0.785398163397448);
#20=CONICAL_SURFACE('',#273,3.,0.785398163397448);
#21=FACE_BOUND('',#44,.T.);
#22=FACE_BOUND('',#48,.T.);
#23=FACE_BOUND('',#52,.T.);
#24=PLANE('',#256);
#25=PLANE('',#264);
#26=PLANE('',#270);
#27=PLANE('',#274);
#28=FACE_OUTER_BOUND('',#42,.T.);
#29=FACE_OUTER_BOUND('',#43,.T.);
#30=FACE_OUTER_BOUND('',#45,.T.);
#31=FACE_OUTER_BOUND('',#46,.T.);
#32=FACE_OUTER_BOUND('',#47,.T.);
#33=FACE_OUTER_BOUND('',#49,.T.);
#34=FACE_OUTER_BOUND('',#50,.T.);
#35=FACE_OUTER_BOUND('',#51,.T.);
#36=FACE_OUTER_BOUND('',#53,.T.);
#37=FACE_OUTER_BOUND('',#54,.T.);
#38=FACE_OUTER_BOUND('',#55,.T.);
#39=FACE_OUTER_BOUND('',#56,.T.);
#40=FACE_OUTER_BOUND('',#57,.T.);
#41=FACE_OUTER_BOUND('',#58,.T.);
#42=EDGE_LOOP('',(#139,#140,#141,#142,#143,#144));
#43=EDGE_LOOP('',(#145));
#44=EDGE_LOOP('',(#146));
#45=EDGE_LOOP('',(#147,#148,#149,#150));
#46=EDGE_LOOP('',(#151,#152,#153,#154,#155,#156));
#47=EDGE_LOOP('',(#157));
#48=EDGE_LOOP('',(#158));
#49=EDGE_LOOP('',(#159,#160,#161,#162,#163,#164));
#50=EDGE_LOOP('',(#165,#166,#167,#168,#169));
#51=EDGE_LOOP('',(#170));
#52=EDGE_LOOP('',(#171));
#53=EDGE_LOOP('',(#172,#173,#174,#175,#176));
#54=EDGE_LOOP('',(#177));
#55=EDGE_LOOP('',(#178,#179,#180,#181));
#56=EDGE_LOOP('',(#182,#183,#184));
#57=EDGE_LOOP('',(#185,#186,#187));
#58=EDGE_LOOP('',(#188,#189,#190,#191,#192,#193,#194));
#59=LINE('',#356,#68);
#60=LINE('',#368,#69);
#61=LINE('',#374,#70);
#62=LINE('',#383,#71);
#63=LINE('',#385,#72);
#64=LINE('',#392,#73);
#65=LINE('',#397,#74);
#66=LINE('',#418,#75);
#67=LINE('',#470,#76);
#68=VECTOR('',#288,3.25);
#69=VECTOR('',#303,2.8);
#70=VECTOR('',#310,3.625);
#71=VECTOR('',#321,4.);
#72=VECTOR('',#324,3.625);
#73=VECTOR('',#333,3.);
#74=VECTOR('',#340,2.75);
#75=VECTOR('',#343,10.);
#76=VECTOR('',#348,1.95);
#77=CIRCLE('',#252,3.25);
#78=CIRCLE('',#253,3.25);
#79=CIRCLE('',#254,3.25);
#80=CIRCLE('',#255,3.25);
#81=CIRCLE('',#257,2.8);
#82=CIRCLE('',#258,2.75);
#83=CIRCLE('',#260,2.8);
#84=CIRCLE('',#262,4.);
#85=CIRCLE('',#263,4.);
#86=CIRCLE('',#265,3.25);
#87=CIRCLE('',#267,4.);
#88=CIRCLE('',#268,4.);
#89=CIRCLE('',#271,2.75);
#90=CIRCLE('',#272,1.95);
#91=CIRCLE('',#275,2.75);
#92=VERTEX_POINT('',#351);
#93=VERTEX_POINT('',#352);
#94=VERTEX_POINT('',#355);
#95=VERTEX_POINT('',#357);
#96=VERTEX_POINT('',#361);
#97=VERTEX_POINT('',#363);
#98=VERTEX_POINT('',#366);
#99=VERTEX_POINT('',#370);
#100=VERTEX_POINT('',#371);
#101=VERTEX_POINT('',#376);
#102=VERTEX_POINT('',#379);
#103=VERTEX_POINT('',#380);
#104=VERTEX_POINT('',#387);
#105=VERTEX_POINT('',#389);
#106=VERTEX_POINT('',#394);
#107=VERTEX_POINT('',#399);
#108=VERTEX_POINT('',#400);
#109=VERTEX_POINT('',#417);
#110=VERTEX_POINT('',#436);
#111=EDGE_CURVE('',#92,#93,#77,.T.);
#112=EDGE_CURVE('',#93,#92,#78,.T.);
#113=EDGE_CURVE('',#93,#94,#59,.T.);
#114=EDGE_CURVE('',#95,#94,#79,.T.);
#115=EDGE_CURVE('',#94,#95,#80,.T.);
#116=EDGE_CURVE('',#96,#96,#81,.T.);
#117=EDGE_CURVE('',#97,#97,#82,.T.);
#118=EDGE_CURVE('',#98,#98,#83,.T.);
#119=EDGE_CURVE('',#98,#96,#60,.T.);
#120=EDGE_CURVE('',#99,#100,#84,.T.);
#121=EDGE_CURVE('',#100,#99,#85,.T.);
#122=EDGE_CURVE('',#99,#92,#61,.T.);
#123=EDGE_CURVE('',#101,#101,#86,.T.);
#124=EDGE_CURVE('',#102,#103,#87,.T.);
#125=EDGE_CURVE('',#103,#102,#88,.T.);
#126=EDGE_CURVE('',#103,#100,#62,.T.);
#127=EDGE_CURVE('',#101,#102,#63,.T.);
#128=EDGE_CURVE('',#104,#104,#89,.T.);
#129=EDGE_CURVE('',#105,#105,#90,.T.);
#130=EDGE_CURVE('',#95,#104,#64,.T.);
#131=EDGE_CURVE('',#106,#106,#91,.T.);
#132=EDGE_CURVE('',#106,#97,#65,.T.);
#133=EDGE_CURVE('',#107,#108,#14,.T.);
#134=EDGE_CURVE('',#108,#109,#66,.T.);
#135=EDGE_CURVE('',#109,#107,#15,.T.);
#136=EDGE_CURVE('',#108,#110,#16,.T.);
#137=EDGE_CURVE('',#110,#109,#17,.T.);
#138=EDGE_CURVE('',#107,#105,#67,.T.);
#139=ORIENTED_EDGE('',*,*,#111,.F.);
#140=ORIENTED_EDGE('',*,*,#112,.F.);
#141=ORIENTED_EDGE('',*,*,#113,.T.);
#142=ORIENTED_EDGE('',*,*,#114,.F.);
#143=ORIENTED_EDGE('',*,*,#115,.F.);
#144=ORIENTED_EDGE('',*,*,#113,.F.);
#145=ORIENTED_EDGE('',*,*,#116,.T.);
#146=ORIENTED_EDGE('',*,*,#117,.T.);
#147=ORIENTED_EDGE('',*,*,#118,.T.);
#148=ORIENTED_EDGE('',*,*,#119,.T.);
#149=ORIENTED_EDGE('',*,*,#116,.F.);
#150=ORIENTED_EDGE('',*,*,#119,.F.);
#151=ORIENTED_EDGE('',*,*,#120,.T.);
#152=ORIENTED_EDGE('',*,*,#121,.T.);
#153=ORIENTED_EDGE('',*,*,#122,.T.);
#154=ORIENTED_EDGE('',*,*,#111,.T.);
#155=ORIENTED_EDGE('',*,*,#112,.T.);
#156=ORIENTED_EDGE('',*,*,#122,.F.);
#157=ORIENTED_EDGE('',*,*,#123,.F.);
#158=ORIENTED_EDGE('',*,*,#118,.F.);
#159=ORIENTED_EDGE('',*,*,#124,.F.);
#160=ORIENTED_EDGE('',*,*,#125,.F.);
#161=ORIENTED_EDGE('',*,*,#126,.T.);
#162=ORIENTED_EDGE('',*,*,#120,.F.);
#163=ORIENTED_EDGE('',*,*,#121,.F.);
#164=ORIENTED_EDGE('',*,*,#126,.F.);
#165=ORIENTED_EDGE('',*,*,#123,.T.);
#166=ORIENTED_EDGE('',*,*,#127,.T.);
#167=ORIENTED_EDGE('',*,*,#124,.T.);
#168=ORIENTED_EDGE('',*,*,#125,.T.);
#169=ORIENTED_EDGE('',*,*,#127,.F.);
#170=ORIENTED_EDGE('',*,*,#128,.F.);
#171=ORIENTED_EDGE('',*,*,#129,.T.);
#172=ORIENTED_EDGE('',*,*,#114,.T.);
#173=ORIENTED_EDGE('',*,*,#115,.T.);
#174=ORIENTED_EDGE('',*,*,#130,.T.);
#175=ORIENTED_EDGE('',*,*,#128,.T.);
#176=ORIENTED_EDGE('',*,*,#130,.F.);
#177=ORIENTED_EDGE('',*,*,#131,.T.);
#178=ORIENTED_EDGE('',*,*,#131,.F.);
#179=ORIENTED_EDGE('',*,*,#132,.T.);
#180=ORIENTED_EDGE('',*,*,#117,.F.);
#181=ORIENTED_EDGE('',*,*,#132,.F.);
#182=ORIENTED_EDGE('',*,*,#133,.T.);
#183=ORIENTED_EDGE('',*,*,#134,.T.);
#184=ORIENTED_EDGE('',*,*,#135,.T.);
#185=ORIENTED_EDGE('',*,*,#136,.T.);
#186=ORIENTED_EDGE('',*,*,#137,.T.);
#187=ORIENTED_EDGE('',*,*,#134,.F.);
#188=ORIENTED_EDGE('',*,*,#133,.F.);
#189=ORIENTED_EDGE('',*,*,#138,.T.);
#190=ORIENTED_EDGE('',*,*,#129,.F.);
#191=ORIENTED_EDGE('',*,*,#138,.F.);
#192=ORIENTED_EDGE('',*,*,#135,.F.);
#193=ORIENTED_EDGE('',*,*,#137,.F.);
#194=ORIENTED_EDGE('',*,*,#136,.F.);
#195=CYLINDRICAL_SURFACE('',#251,3.25);
#196=CYLINDRICAL_SURFACE('',#259,2.8);
#197=CYLINDRICAL_SURFACE('',#266,4.);
#198=CYLINDRICAL_SURFACE('',#276,2.75);
#199=CYLINDRICAL_SURFACE('',#277,1.2);
#200=CYLINDRICAL_SURFACE('',#278,1.2);
#201=CYLINDRICAL_SURFACE('',#279,1.95);
#202=STYLED_ITEM('',(#491),#217);
#203=STYLED_ITEM('',(#492),#218);
#204=STYLED_ITEM('',(#492),#219);
#205=STYLED_ITEM('',(#492),#220);
#206=STYLED_ITEM('',(#492),#221);
#207=STYLED_ITEM('',(#492),#222);
#208=STYLED_ITEM('',(#492),#223);
#209=STYLED_ITEM('',(#491),#224);
#210=STYLED_ITEM('',(#491),#225);
#211=STYLED_ITEM('',(#493),#226);
#212=STYLED_ITEM('',(#493),#227);
#213=STYLED_ITEM('',(#494),#228);
#214=STYLED_ITEM('',(#494),#229);
#215=STYLED_ITEM('',(#494),#230);
#216=STYLED_ITEM('',(#490),#13);
#217=ADVANCED_FACE('',(#28),#195,.T.);
#218=ADVANCED_FACE('',(#29,#21),#24,.T.);
#219=ADVANCED_FACE('',(#30),#196,.F.);
#220=ADVANCED_FACE('',(#31),#18,.T.);
#221=ADVANCED_FACE('',(#32,#22),#25,.T.);
#222=ADVANCED_FACE('',(#33),#197,.T.);
#223=ADVANCED_FACE('',(#34),#19,.T.);
#224=ADVANCED_FACE('',(#35,#23),#26,.T.);
#225=ADVANCED_FACE('',(#36),#20,.T.);
#226=ADVANCED_FACE('',(#37),#27,.T.);
#227=ADVANCED_FACE('',(#38),#198,.T.);
#228=ADVANCED_FACE('',(#39),#199,.F.);
#229=ADVANCED_FACE('',(#40),#200,.T.);
#230=ADVANCED_FACE('',(#41),#201,.T.);
#231=CLOSED_SHELL('',(#217,#218,#219,#220,#221,#222,#223,#224,#225,#226,
#227,#228,#229,#230));
#232=DERIVED_UNIT_ELEMENT(#234,1.);
#233=DERIVED_UNIT_ELEMENT(#476,3.);
#234=(
MASS_UNIT()
NAMED_UNIT(*)
SI_UNIT($,.GRAM.)
);
#235=DERIVED_UNIT((#232,#233));
#236=MEASURE_REPRESENTATION_ITEM('density measure',
POSITIVE_RATIO_MEASURE(1.),#235);
#237=PROPERTY_DEFINITION_REPRESENTATION(#242,#239);
#238=PROPERTY_DEFINITION_REPRESENTATION(#243,#240);
#239=REPRESENTATION('material name',(#241),#473);
#240=REPRESENTATION('density',(#236),#473);
#241=DESCRIPTIVE_REPRESENTATION_ITEM('Allgemein','Allgemein');
#242=PROPERTY_DEFINITION('material property','material name',#483);
#243=PROPERTY_DEFINITION('material property','density of part',#483);
#244=DATE_TIME_ROLE('creation_date');
#245=APPLIED_DATE_AND_TIME_ASSIGNMENT(#246,#244,(#483));
#246=DATE_AND_TIME(#247,#248);
#247=CALENDAR_DATE(2021,21,12);
#248=LOCAL_TIME(0,0,0.,#249);
#249=COORDINATED_UNIVERSAL_TIME_OFFSET(0,0,.BEHIND.);
#250=AXIS2_PLACEMENT_3D('placement',#349,#280,#281);
#251=AXIS2_PLACEMENT_3D('',#350,#282,#283);
#252=AXIS2_PLACEMENT_3D('',#353,#284,#285);
#253=AXIS2_PLACEMENT_3D('',#354,#286,#287);
#254=AXIS2_PLACEMENT_3D('',#358,#289,#290);
#255=AXIS2_PLACEMENT_3D('',#359,#291,#292);
#256=AXIS2_PLACEMENT_3D('',#360,#293,#294);
#257=AXIS2_PLACEMENT_3D('',#362,#295,#296);
#258=AXIS2_PLACEMENT_3D('',#364,#297,#298);
#259=AXIS2_PLACEMENT_3D('',#365,#299,#300);
#260=AXIS2_PLACEMENT_3D('',#367,#301,#302);
#261=AXIS2_PLACEMENT_3D('',#369,#304,#305);
#262=AXIS2_PLACEMENT_3D('',#372,#306,#307);
#263=AXIS2_PLACEMENT_3D('',#373,#308,#309);
#264=AXIS2_PLACEMENT_3D('',#375,#311,#312);
#265=AXIS2_PLACEMENT_3D('',#377,#313,#314);
#266=AXIS2_PLACEMENT_3D('',#378,#315,#316);
#267=AXIS2_PLACEMENT_3D('',#381,#317,#318);
#268=AXIS2_PLACEMENT_3D('',#382,#319,#320);
#269=AXIS2_PLACEMENT_3D('',#384,#322,#323);
#270=AXIS2_PLACEMENT_3D('',#386,#325,#326);
#271=AXIS2_PLACEMENT_3D('',#388,#327,#328);
#272=AXIS2_PLACEMENT_3D('',#390,#329,#330);
#273=AXIS2_PLACEMENT_3D('',#391,#331,#332);
#274=AXIS2_PLACEMENT_3D('',#393,#334,#335);
#275=AXIS2_PLACEMENT_3D('',#395,#336,#337);
#276=AXIS2_PLACEMENT_3D('',#396,#338,#339);
#277=AXIS2_PLACEMENT_3D('',#398,#341,#342);
#278=AXIS2_PLACEMENT_3D('',#435,#344,#345);
#279=AXIS2_PLACEMENT_3D('',#469,#346,#347);
#280=DIRECTION('axis',(0.,0.,1.));
#281=DIRECTION('refdir',(1.,0.,0.));
#282=DIRECTION('center_axis',(1.79594901042305E-16,-1.,0.));
#283=DIRECTION('ref_axis',(1.,2.19008838842072E-16,0.));
#284=DIRECTION('center_axis',(1.79594901042305E-16,-1.,0.));
#285=DIRECTION('ref_axis',(1.,2.19008838842072E-16,0.));
#286=DIRECTION('center_axis',(1.79594901042305E-16,-1.,0.));
#287=DIRECTION('ref_axis',(1.,2.19008838842072E-16,0.));
#288=DIRECTION('',(-1.79594901042305E-16,1.,0.));
#289=DIRECTION('center_axis',(-1.5419764230905E-16,1.,0.));
#290=DIRECTION('ref_axis',(-1.,-1.70887618958552E-16,0.));
#291=DIRECTION('center_axis',(-1.5419764230905E-16,1.,0.));
#292=DIRECTION('ref_axis',(-1.,-1.70887618958552E-16,0.));
#293=DIRECTION('center_axis',(1.79594901042305E-16,-1.,0.));
#294=DIRECTION('ref_axis',(0.,0.,-1.));
#295=DIRECTION('center_axis',(1.79594901042305E-16,-1.,0.));
#296=DIRECTION('ref_axis',(1.,2.19008838842072E-16,0.));
#297=DIRECTION('center_axis',(-1.79594901042305E-16,1.,0.));
#298=DIRECTION('ref_axis',(1.,0.,0.));
#299=DIRECTION('center_axis',(1.79594901042305E-16,-1.,0.));
#300=DIRECTION('ref_axis',(1.,2.19008838842072E-16,0.));
#301=DIRECTION('center_axis',(1.79594901042305E-16,-1.,0.));
#302=DIRECTION('ref_axis',(1.,2.19008838842072E-16,0.));
#303=DIRECTION('',(-1.79594901042305E-16,1.,0.));
#304=DIRECTION('center_axis',(1.79594901042304E-16,-1.,0.));
#305=DIRECTION('ref_axis',(-1.,-2.01340521897349E-16,0.));
#306=DIRECTION('center_axis',(-1.79594901042305E-16,1.,0.));
#307=DIRECTION('ref_axis',(-1.,-2.19008838842072E-16,0.));
#308=DIRECTION('center_axis',(-1.79594901042305E-16,1.,0.));
#309=DIRECTION('ref_axis',(-1.,-2.19008838842072E-16,0.));
#310=DIRECTION('',(-0.707106781186546,0.707106781186549,-8.65956056235492E-17));
#311=DIRECTION('center_axis',(1.79594901042305E-16,-1.,0.));
#312=DIRECTION('ref_axis',(0.,0.,-1.));
#313=DIRECTION('center_axis',(-1.79594901042305E-16,1.,0.));
#314=DIRECTION('ref_axis',(-1.,-1.79594901042305E-16,0.));
#315=DIRECTION('center_axis',(1.79594901042305E-16,-1.,0.));
#316=DIRECTION('ref_axis',(1.,2.19008838842072E-16,0.));
#317=DIRECTION('center_axis',(1.79594901042305E-16,-1.,0.));
#318=DIRECTION('ref_axis',(-1.,-2.19008838842072E-16,0.));
#319=DIRECTION('center_axis',(1.79594901042305E-16,-1.,0.));
#320=DIRECTION('ref_axis',(-1.,-2.19008838842072E-16,0.));
#321=DIRECTION('',(-1.79594901042305E-16,1.,0.));
#322=DIRECTION('center_axis',(-1.79594901042305E-16,1.,0.));
#323=DIRECTION('ref_axis',(-1.,-2.01340521897349E-16,0.));
#324=DIRECTION('',(0.707106781186547,0.707106781186548,8.65956056235493E-17));
#325=DIRECTION('center_axis',(-1.5419764230905E-16,1.,0.));
#326=DIRECTION('ref_axis',(0.,0.,1.));
#327=DIRECTION('center_axis',(1.5419764230905E-16,-1.,0.));
#328=DIRECTION('ref_axis',(-1.,-1.5419764230905E-16,0.));
#329=DIRECTION('center_axis',(1.5419764230905E-16,-1.,0.));
#330=DIRECTION('ref_axis',(1.,1.70887618958552E-16,0.));
#331=DIRECTION('center_axis',(1.54197642309049E-16,-1.,0.));
#332=DIRECTION('ref_axis',(-1.,-1.6323804632753E-16,0.));
#333=DIRECTION('',(-0.707106781186548,0.707106781186547,-8.65956056235493E-17));
#334=DIRECTION('center_axis',(1.5167687290291E-16,-1.,0.));
#335=DIRECTION('ref_axis',(0.,0.,-1.));
#336=DIRECTION('center_axis',(1.5167687290291E-16,-1.,0.));
#337=DIRECTION('ref_axis',(1.,0.,0.));
#338=DIRECTION('center_axis',(1.5167687290291E-16,-1.,0.));
#339=DIRECTION('ref_axis',(1.,0.,0.));
#340=DIRECTION('',(-1.5167687290291E-16,1.,0.));
#341=DIRECTION('center_axis',(0.,0.,1.));
#342=DIRECTION('ref_axis',(-0.812499999999998,-0.582961190818054,0.));
#343=DIRECTION('',(0.,0.,1.));
#344=DIRECTION('center_axis',(0.,0.,1.));
#345=DIRECTION('ref_axis',(-0.8125,-0.582961190818051,0.));
#346=DIRECTION('center_axis',(-1.21430643318376E-16,1.,0.));
#347=DIRECTION('ref_axis',(-1.,-1.21430643318376E-16,0.));
#348=DIRECTION('',(1.21430643318376E-16,-1.,0.));
#349=CARTESIAN_POINT('',(0.,0.,0.));
#350=CARTESIAN_POINT('Origin',(-5.29804958074799E-15,29.5,0.));
#351=CARTESIAN_POINT('',(3.25,25.,0.));
#352=CARTESIAN_POINT('',(-3.25000000000001,25.,-3.9801020972289E-16));
#353=CARTESIAN_POINT('Origin',(-4.48987252605762E-15,25.,0.));
#354=CARTESIAN_POINT('Origin',(-4.48987252605762E-15,25.,0.));
#355=CARTESIAN_POINT('',(-3.25000000000001,34.3,-3.9801020972289E-16));
#356=CARTESIAN_POINT('',(-3.25000000000001,29.5,-3.9801020972289E-16));
#357=CARTESIAN_POINT('',(3.25,34.3,-3.97997064992273E-16));
#358=CARTESIAN_POINT('Origin',(-4.51636445209139E-15,34.3,0.));
#359=CARTESIAN_POINT('Origin',(-4.51636445209139E-15,34.3,0.));
#360=CARTESIAN_POINT('Origin',(2.75,7.,0.));
#361=CARTESIAN_POINT('',(-2.8,7.,-3.42901103761259E-16));
#362=CARTESIAN_POINT('Origin',(-1.25716430729613E-15,7.,0.));
#363=CARTESIAN_POINT('',(-2.75,7.,-3.36777869765522E-16));
#364=CARTESIAN_POINT('Origin',(-1.06173811032037E-15,7.,0.));
#365=CARTESIAN_POINT('Origin',(-6.28582153648067E-16,3.5,0.));
#366=CARTESIAN_POINT('',(-2.8,-1.11022302462516E-15,-3.42901103761259E-16));
#367=CARTESIAN_POINT('Origin',(-5.18075155040166E-31,-5.07406616723216E-16,
0.));
#368=CARTESIAN_POINT('',(-2.8,3.5,-3.42901103761259E-16));
#369=CARTESIAN_POINT('Origin',(-4.42252443816676E-15,24.625,0.));
#370=CARTESIAN_POINT('',(4.,24.25,-4.89842541528951E-16));
#371=CARTESIAN_POINT('',(-4.00000000000001,24.25,-4.89858719658941E-16));
#372=CARTESIAN_POINT('Origin',(-4.35517635027589E-15,24.25,0.));
#373=CARTESIAN_POINT('Origin',(-4.35517635027589E-15,24.25,0.));
#374=CARTESIAN_POINT('',(3.625,24.625,4.43934464690916E-16));
#375=CARTESIAN_POINT('Origin',(3.4,1.2801977948183E-16,0.));
#376=CARTESIAN_POINT('',(3.25,1.67349794153057E-16,-3.97997064992273E-16));
#377=CARTESIAN_POINT('Origin',(-5.0844550531823E-31,-4.16333634234434E-16,
0.));
#378=CARTESIAN_POINT('Origin',(-2.24493626302881E-15,12.5,0.));
#379=CARTESIAN_POINT('',(4.,0.75,4.89842541528951E-16));
#380=CARTESIAN_POINT('',(-4.,0.75,-4.89858719658941E-16));
#381=CARTESIAN_POINT('Origin',(-1.34696175781729E-16,0.75,0.));
#382=CARTESIAN_POINT('Origin',(-1.34696175781729E-16,0.75,0.));
#383=CARTESIAN_POINT('',(-4.,12.5,-4.89858719658941E-16));
#384=CARTESIAN_POINT('Origin',(-6.73480878908648E-17,0.375,0.));
#385=CARTESIAN_POINT('',(3.625,0.375,4.43934464690916E-16));
#386=CARTESIAN_POINT('Origin',(2.6,34.8,0.));
#387=CARTESIAN_POINT('',(2.75,34.8,3.36766747301154E-16));
#388=CARTESIAN_POINT('Origin',(-4.59346327324592E-15,34.8,0.));
#389=CARTESIAN_POINT('',(1.95,34.8,0.));
#390=CARTESIAN_POINT('Origin',(-4.59346327324592E-15,34.8,0.));
#391=CARTESIAN_POINT('Origin',(-4.55491386266866E-15,34.55,0.));
#392=CARTESIAN_POINT('',(2.99999999999999,34.55,3.67394039744206E-16));
#393=CARTESIAN_POINT('Origin',(1.375,-9.02952162402144E-17,0.));
#394=CARTESIAN_POINT('',(-2.75,-1.11022302462516E-15,-3.36777869765522E-16));
#395=CARTESIAN_POINT('Origin',(-6.16297582203915E-31,-5.07406616723216E-16,
0.));
#396=CARTESIAN_POINT('Origin',(-5.30869055160184E-16,3.5,0.));
#397=CARTESIAN_POINT('',(-2.75,3.5,-3.36777869765522E-16));
#398=CARTESIAN_POINT('Origin',(0.974999999999995,45.4995534289817,-1.95));
#399=CARTESIAN_POINT('',(1.95,44.8,0.));
#400=CARTESIAN_POINT('',(-3.88578058618805E-15,44.8,-1.95));
#401=CARTESIAN_POINT('Ctrl Pts',(1.95,44.8,1.38777878078145E-16));
#402=CARTESIAN_POINT('Ctrl Pts',(1.95,44.8,-0.140497694552722));
#403=CARTESIAN_POINT('Ctrl Pts',(1.93484062491239,44.7778680592345,-0.27851784549624));
#404=CARTESIAN_POINT('Ctrl Pts',(1.87701758513311,44.7068133897615,-0.545943827692718));
#405=CARTESIAN_POINT('Ctrl Pts',(1.8342990981772,44.6585791368793,-0.675520259067046));
#406=CARTESIAN_POINT('Ctrl Pts',(1.66708295206205,44.5078123526801,-1.04750209821939));
#407=CARTESIAN_POINT('Ctrl Pts',(1.50232102747293,44.4007293531221,-1.27327048998299));
#408=CARTESIAN_POINT('Ctrl Pts',(1.19974326967511,44.3164829999208,-1.54273521410389));
#409=CARTESIAN_POINT('Ctrl Pts',(1.08318941382125,44.2980335797458,-1.62771450393266));
#410=CARTESIAN_POINT('Ctrl Pts',(0.835380899812418,44.3012790839553,-1.76773656354624));
#411=CARTESIAN_POINT('Ctrl Pts',(0.704146648017852,44.3236032937966,-1.82280015368416));
#412=CARTESIAN_POINT('Ctrl Pts',(0.45025386001893,44.4111684949073,-1.90245793231783));
#413=CARTESIAN_POINT('Ctrl Pts',(0.29856926138355,44.4975449603363,-1.9302233504047));
#414=CARTESIAN_POINT('Ctrl Pts',(0.119236675972454,44.6534447247356,-1.9475662761169));
#415=CARTESIAN_POINT('Ctrl Pts',(0.0553112980560181,44.7229100832468,-1.95));
#416=CARTESIAN_POINT('Ctrl Pts',(-4.4354710876382E-15,44.8,-1.95));
#417=CARTESIAN_POINT('',(-3.88578058618805E-15,44.8,1.95));
#418=CARTESIAN_POINT('',(-3.88578058618805E-15,44.8,-1.95));
#419=CARTESIAN_POINT('Ctrl Pts',(-4.43547108763821E-15,44.8,1.95));
#420=CARTESIAN_POINT('Ctrl Pts',(0.0553112980560175,44.7229100832468,1.95));
#421=CARTESIAN_POINT('Ctrl Pts',(0.119236675972454,44.6534447247356,1.9475662761169));
#422=CARTESIAN_POINT('Ctrl Pts',(0.298569261383549,44.4975449603363,1.9302233504047));
#423=CARTESIAN_POINT('Ctrl Pts',(0.45025386001893,44.4111684949073,1.90245793231782));
#424=CARTESIAN_POINT('Ctrl Pts',(0.704146648017852,44.3236032937966,1.82280015368416));
#425=CARTESIAN_POINT('Ctrl Pts',(0.835380899812418,44.3012790839553,1.76773656354624));
#426=CARTESIAN_POINT('Ctrl Pts',(1.08318941382125,44.2980335797458,1.62771450393266));
#427=CARTESIAN_POINT('Ctrl Pts',(1.19974326967511,44.3164829999208,1.54273521410389));
#428=CARTESIAN_POINT('Ctrl Pts',(1.50232102747293,44.4007293531221,1.27327048998299));
#429=CARTESIAN_POINT('Ctrl Pts',(1.66708295206205,44.5078123526801,1.04750209821939));
#430=CARTESIAN_POINT('Ctrl Pts',(1.8342990981772,44.6585791368793,0.675520259067046));
#431=CARTESIAN_POINT('Ctrl Pts',(1.87701758513311,44.7068133897615,0.545943827692718));
#432=CARTESIAN_POINT('Ctrl Pts',(1.93484062491239,44.7778680592345,0.27851784549624));
#433=CARTESIAN_POINT('Ctrl Pts',(1.95,44.8,0.140497694552723));
#434=CARTESIAN_POINT('Ctrl Pts',(1.95,44.8,-2.60208521396521E-16));
#435=CARTESIAN_POINT('Origin',(-0.975000000000003,44.1004465710183,-1.95));
#436=CARTESIAN_POINT('',(-1.95,44.8,0.));
#437=CARTESIAN_POINT('Ctrl Pts',(-3.61093533546298E-15,44.8,-1.95));
#438=CARTESIAN_POINT('Ctrl Pts',(-0.0553112980560213,44.8770899167532,-1.95));
#439=CARTESIAN_POINT('Ctrl Pts',(-0.119236675972462,44.9465552752644,-1.9475662761169));
#440=CARTESIAN_POINT('Ctrl Pts',(-0.298569261383558,45.1024550396637,-1.9302233504047));
#441=CARTESIAN_POINT('Ctrl Pts',(-0.450253860018938,45.1888315050927,-1.90245793231782));
#442=CARTESIAN_POINT('Ctrl Pts',(-0.70414664801786,45.2763967062034,-1.82280015368416));
#443=CARTESIAN_POINT('Ctrl Pts',(-0.835380899812425,45.2987209160447,-1.76773656354624));
#444=CARTESIAN_POINT('Ctrl Pts',(-1.08318941382126,45.3019664202542,-1.62771450393266));
#445=CARTESIAN_POINT('Ctrl Pts',(-1.19974326967512,45.2835170000792,-1.54273521410389));
#446=CARTESIAN_POINT('Ctrl Pts',(-1.50232102747294,45.199270646878,-1.27327048998299));
#447=CARTESIAN_POINT('Ctrl Pts',(-1.66708295206206,45.0921876473199,-1.04750209821939));
#448=CARTESIAN_POINT('Ctrl Pts',(-1.83429909817721,44.9414208631208,-0.675520259067047));
#449=CARTESIAN_POINT('Ctrl Pts',(-1.87701758513312,44.8931866102385,-0.54594382769272));
#450=CARTESIAN_POINT('Ctrl Pts',(-1.9348406249124,44.8221319407655,-0.278517845496241));
#451=CARTESIAN_POINT('Ctrl Pts',(-1.95,44.8,-0.140497694552722));
#452=CARTESIAN_POINT('Ctrl Pts',(-1.95,44.8,-1.90819582357449E-16));
#453=CARTESIAN_POINT('Ctrl Pts',(-1.95,44.8,1.56125112837913E-16));
#454=CARTESIAN_POINT('Ctrl Pts',(-1.95,44.8,0.140497694552722));
#455=CARTESIAN_POINT('Ctrl Pts',(-1.9348406249124,44.8221319407655,0.278517845496241));
#456=CARTESIAN_POINT('Ctrl Pts',(-1.87701758513312,44.8931866102385,0.54594382769272));
#457=CARTESIAN_POINT('Ctrl Pts',(-1.83429909817721,44.9414208631208,0.675520259067048));
#458=CARTESIAN_POINT('Ctrl Pts',(-1.66708295206206,45.0921876473199,1.04750209821939));
#459=CARTESIAN_POINT('Ctrl Pts',(-1.50232102747294,45.199270646878,1.27327048998299));
#460=CARTESIAN_POINT('Ctrl Pts',(-1.19974326967512,45.2835170000792,1.54273521410389));
#461=CARTESIAN_POINT('Ctrl Pts',(-1.08318941382126,45.3019664202542,1.62771450393266));
#462=CARTESIAN_POINT('Ctrl Pts',(-0.835380899812425,45.2987209160447,1.76773656354624));
#463=CARTESIAN_POINT('Ctrl Pts',(-0.70414664801786,45.2763967062034,1.82280015368416));
#464=CARTESIAN_POINT('Ctrl Pts',(-0.450253860018938,45.1888315050927,1.90245793231782));
#465=CARTESIAN_POINT('Ctrl Pts',(-0.298569261383558,45.1024550396637,1.9302233504047));
#466=CARTESIAN_POINT('Ctrl Pts',(-0.119236675972462,44.9465552752644,1.9475662761169));
#467=CARTESIAN_POINT('Ctrl Pts',(-0.0553112980560212,44.8770899167532,1.95));
#468=CARTESIAN_POINT('Ctrl Pts',(-3.61093533546298E-15,44.8,1.95));
#469=CARTESIAN_POINT('Origin',(-2.77555756156289E-16,14.8,0.));
#470=CARTESIAN_POINT('',(1.95,14.8,-2.38806125833734E-16));
#471=UNCERTAINTY_MEASURE_WITH_UNIT(LENGTH_MEASURE(0.01),#475,
'DISTANCE_ACCURACY_VALUE',
'Maximum model space distance between geometric entities at asserted c
onnectivities');
#472=UNCERTAINTY_MEASURE_WITH_UNIT(LENGTH_MEASURE(0.01),#475,
'DISTANCE_ACCURACY_VALUE',
'Maximum model space distance between geometric entities at asserted c
onnectivities');
#473=(
GEOMETRIC_REPRESENTATION_CONTEXT(3)
GLOBAL_UNCERTAINTY_ASSIGNED_CONTEXT((#471))
GLOBAL_UNIT_ASSIGNED_CONTEXT((#475,#477,#478))
REPRESENTATION_CONTEXT('','3D')
);
#474=(
GEOMETRIC_REPRESENTATION_CONTEXT(3)
GLOBAL_UNCERTAINTY_ASSIGNED_CONTEXT((#472))
GLOBAL_UNIT_ASSIGNED_CONTEXT((#475,#477,#478))
REPRESENTATION_CONTEXT('','3D')
);
#475=(
LENGTH_UNIT()
NAMED_UNIT(*)
SI_UNIT(.MILLI.,.METRE.)
);
#476=(
LENGTH_UNIT()
NAMED_UNIT(*)
SI_UNIT(.CENTI.,.METRE.)
);
#477=(
NAMED_UNIT(*)
PLANE_ANGLE_UNIT()
SI_UNIT($,.RADIAN.)
);
#478=(
NAMED_UNIT(*)
SI_UNIT($,.STERADIAN.)
SOLID_ANGLE_UNIT()
);
#479=SHAPE_DEFINITION_REPRESENTATION(#480,#481);
#480=PRODUCT_DEFINITION_SHAPE('',$,#483);
#481=SHAPE_REPRESENTATION('',(#250),#473);
#482=PRODUCT_DEFINITION_CONTEXT('part definition',#487,'design');
#483=PRODUCT_DEFINITION('400100_Shrinkwrap_1','400100_Shrinkwrap_1',#484,
#482);
#484=PRODUCT_DEFINITION_FORMATION('',$,#489);
#485=PRODUCT_RELATED_PRODUCT_CATEGORY('400100_Shrinkwrap_1',
'400100_Shrinkwrap_1',(#489));
#486=APPLICATION_PROTOCOL_DEFINITION('international standard',
'automotive_design',2009,#487);
#487=APPLICATION_CONTEXT(
'Core Data for Automotive Mechanical Design Process');
#488=PRODUCT_CONTEXT('part definition',#487,'mechanical');
#489=PRODUCT('400100_Shrinkwrap_1','400100_Shrinkwrap_1',$,(#488));
#490=PRESENTATION_STYLE_ASSIGNMENT((#495));
#491=PRESENTATION_STYLE_ASSIGNMENT((#496));
#492=PRESENTATION_STYLE_ASSIGNMENT((#497));
#493=PRESENTATION_STYLE_ASSIGNMENT((#498));
#494=PRESENTATION_STYLE_ASSIGNMENT((#499));
#495=SURFACE_STYLE_USAGE(.BOTH.,#510);
#496=SURFACE_STYLE_USAGE(.BOTH.,#511);
#497=SURFACE_STYLE_USAGE(.BOTH.,#512);
#498=SURFACE_STYLE_USAGE(.BOTH.,#513);
#499=SURFACE_STYLE_USAGE(.BOTH.,#514);
#500=SURFACE_STYLE_RENDERING_WITH_PROPERTIES($,#530,(#505));
#501=SURFACE_STYLE_RENDERING_WITH_PROPERTIES($,#531,(#506));
#502=SURFACE_STYLE_RENDERING_WITH_PROPERTIES($,#532,(#507));
#503=SURFACE_STYLE_RENDERING_WITH_PROPERTIES($,#533,(#508));
#504=SURFACE_STYLE_RENDERING_WITH_PROPERTIES($,#534,(#509));
#505=SURFACE_STYLE_TRANSPARENT(0.);
#506=SURFACE_STYLE_TRANSPARENT(0.40200001001358);
#507=SURFACE_STYLE_TRANSPARENT(0.);
#508=SURFACE_STYLE_TRANSPARENT(0.);
#509=SURFACE_STYLE_TRANSPARENT(0.);
#510=SURFACE_SIDE_STYLE('',(#515,#500));
#511=SURFACE_SIDE_STYLE('',(#516,#501));
#512=SURFACE_SIDE_STYLE('',(#517,#502));
#513=SURFACE_SIDE_STYLE('',(#518,#503));
#514=SURFACE_SIDE_STYLE('',(#519,#504));
#515=SURFACE_STYLE_FILL_AREA(#520);
#516=SURFACE_STYLE_FILL_AREA(#521);
#517=SURFACE_STYLE_FILL_AREA(#522);
#518=SURFACE_STYLE_FILL_AREA(#523);
#519=SURFACE_STYLE_FILL_AREA(#524);
#520=FILL_AREA_STYLE('',(#525));
#521=FILL_AREA_STYLE('',(#526));
#522=FILL_AREA_STYLE('',(#527));
#523=FILL_AREA_STYLE('',(#528));
#524=FILL_AREA_STYLE('',(#529));
#525=FILL_AREA_STYLE_COLOUR('',#530);
#526=FILL_AREA_STYLE_COLOUR('',#531);
#527=FILL_AREA_STYLE_COLOUR('',#532);
#528=FILL_AREA_STYLE_COLOUR('',#533);
#529=FILL_AREA_STYLE_COLOUR('',#534);
#530=COLOUR_RGB('',0.749019607843137,0.749019607843137,0.749019607843137);
#531=COLOUR_RGB('',0.501960784313725,0.501960784313725,0.501960784313725);
#532=COLOUR_RGB('',0.588235294117647,0.588235294117647,0.588235294117647);
#533=COLOUR_RGB('',0.92156862745098,0.92156862745098,0.92156862745098);
#534=COLOUR_RGB('',0.,0.,1.);
ENDSEC;
END-ISO-10303-21;
