ISO-10303-21;
HEADER;
/* Generated by software containing ST-Developer
 * from STEP Tools, Inc. (www.steptools.com) 
 */

FILE_DESCRIPTION(
/* description */ (''),
/* implementation_level */ '2;1');

FILE_NAME(
/* name */ 
'E:\\Allgemein\\Inventor Pojekte\\Ger\X\E4te\\300700_Shrinkwrap_1.stp',

/* time_stamp */ '2022-03-18T13:27:15+01:00',
/* author */ ('Krieger Anja'),
/* organization */ (''),
/* preprocessor_version */ 'ST-DEVELOPER v18.1',
/* originating_system */ 'Autodesk Inventor 2021',
/* authorisation */ '');

FILE_SCHEMA (('AUTOMOTIVE_DESIGN { 1 0 10303 214 3 1 1 }'));
ENDSEC;

DATA;
#10=MECHANICAL_DESIGN_GEOMETRIC_PRESENTATION_REPRESENTATION('',(#133,#134,
#135,#136,#137,#138,#139,#140,#141,#142,#143,#144,#145,#146),#343);
#11=SHAPE_REPRESENTATION_RELATIONSHIP('SRR','None',#350,#12);
#12=ADVANCED_BREP_SHAPE_REPRESENTATION('',(#19,#20,#21),#342);
#13=B_SPLINE_CURVE_WITH_KNOTS('',3,(#271,#272,#273,#274,#275,#276,#277,
#278,#279,#280,#281,#282,#283,#284,#285,#286),.UNSPECIFIED.,.F.,.F.,(4,
2,2,2,2,2,2,4),(0.822919966798605,0.851841294564009,0.880762622329413,0.938605277860221,
0.966201894499463,0.993798511138705,1.02558463344959,1.03114141776581),
 .UNSPECIFIED.);
#14=B_SPLINE_CURVE_WITH_KNOTS('',3,(#288,#289,#290,#291,#292,#293,#294,
#295,#296,#297,#298,#299,#300,#301,#302,#303),.UNSPECIFIED.,.F.,.F.,(4,
2,2,2,2,2,2,4),(0.6146985158314,0.620255300147619,0.652041422458505,0.679638039097748,
0.70723465573699,0.765077311267798,0.793998639033201,0.822919966798605),
 .UNSPECIFIED.);
#15=B_SPLINE_CURVE_WITH_KNOTS('',3,(#305,#306,#307,#308,#309,#310,#311,
#312,#313,#314,#315,#316,#317,#318,#319,#320),.UNSPECIFIED.,.F.,.F.,(4,
2,2,2,2,2,2,4),(0.274306655599535,0.303227983364939,0.332149311130343,0.38999196666115,
0.417588583300393,0.445185199939635,0.476971322250521,0.48252810656674),
 .UNSPECIFIED.);
#16=B_SPLINE_CURVE_WITH_KNOTS('',3,(#321,#322,#323,#324,#325,#326,#327,
#328,#329,#330,#331,#332,#333,#334,#335,#336),.UNSPECIFIED.,.F.,.F.,(4,
2,2,2,2,2,2,4),(0.0660852046323295,0.0716419889485487,0.103428111259435,
0.131024727898677,0.15862134453792,0.216464000068727,0.245385327834131,
0.274306655599535),.UNSPECIFIED.);
#17=FACE_BOUND('',#42,.T.);
#18=FACE_BOUND('',#45,.T.);
#19=MANIFOLD_SOLID_BREP('Volumenk\X\F6rper1',#158);
#20=MANIFOLD_SOLID_BREP('Volumenk\X\F6rper1',#159);
#21=MANIFOLD_SOLID_BREP('Volumenk\X\F6rper1',#160);
#22=PLANE('',#183);
#23=PLANE('',#184);
#24=PLANE('',#185);
#25=PLANE('',#190);
#26=PLANE('',#193);
#27=FACE_OUTER_BOUND('',#38,.T.);
#28=FACE_OUTER_BOUND('',#39,.T.);
#29=FACE_OUTER_BOUND('',#40,.T.);
#30=FACE_OUTER_BOUND('',#41,.T.);
#31=FACE_OUTER_BOUND('',#43,.T.);
#32=FACE_OUTER_BOUND('',#44,.T.);
#33=FACE_OUTER_BOUND('',#46,.T.);
#34=FACE_OUTER_BOUND('',#47,.T.);
#35=FACE_OUTER_BOUND('',#48,.T.);
#36=FACE_OUTER_BOUND('',#49,.T.);
#37=FACE_OUTER_BOUND('',#50,.T.);
#38=EDGE_LOOP('',(#95,#96,#97,#98));
#39=EDGE_LOOP('',(#99));
#40=EDGE_LOOP('',(#100));
#41=EDGE_LOOP('',(#101));
#42=EDGE_LOOP('',(#102));
#43=EDGE_LOOP('',(#103,#104,#105,#106));
#44=EDGE_LOOP('',(#107));
#45=EDGE_LOOP('',(#108));
#46=EDGE_LOOP('',(#109,#110,#111,#112));
#47=EDGE_LOOP('',(#113));
#48=EDGE_LOOP('',(#114,#115,#116,#117,#118,#119,#120));
#49=EDGE_LOOP('',(#121,#122,#123));
#50=EDGE_LOOP('',(#124,#125,#126));
#51=LINE('',#246,#56);
#52=LINE('',#257,#57);
#53=LINE('',#263,#58);
#54=LINE('',#269,#59);
#55=LINE('',#338,#60);
#56=VECTOR('',#204,1.775);
#57=VECTOR('',#219,1.8);
#58=VECTOR('',#228,2.);
#59=VECTOR('',#235,1.29999999999999);
#60=VECTOR('',#238,10.);
#61=CIRCLE('',#181,1.775);
#62=CIRCLE('',#182,1.775);
#63=CIRCLE('',#186,2.);
#64=CIRCLE('',#187,1.8);
#65=CIRCLE('',#189,1.8);
#66=CIRCLE('',#191,2.);
#67=CIRCLE('',#194,1.29999999999999);
#68=VERTEX_POINT('',#243);
#69=VERTEX_POINT('',#245);
#70=VERTEX_POINT('',#251);
#71=VERTEX_POINT('',#253);
#72=VERTEX_POINT('',#256);
#73=VERTEX_POINT('',#260);
#74=VERTEX_POINT('',#265);
#75=VERTEX_POINT('',#268);
#76=VERTEX_POINT('',#270);
#77=VERTEX_POINT('',#287);
#78=VERTEX_POINT('',#304);
#79=EDGE_CURVE('',#68,#68,#61,.T.);
#80=EDGE_CURVE('',#68,#69,#51,.T.);
#81=EDGE_CURVE('',#69,#69,#62,.T.);
#82=EDGE_CURVE('',#70,#70,#63,.T.);
#83=EDGE_CURVE('',#71,#71,#64,.T.);
#84=EDGE_CURVE('',#71,#72,#52,.T.);
#85=EDGE_CURVE('',#72,#72,#65,.T.);
#86=EDGE_CURVE('',#73,#73,#66,.T.);
#87=EDGE_CURVE('',#70,#73,#53,.T.);
#88=EDGE_CURVE('',#74,#74,#67,.T.);
#89=EDGE_CURVE('',#74,#75,#54,.T.);
#90=EDGE_CURVE('',#76,#75,#13,.T.);
#91=EDGE_CURVE('',#77,#76,#14,.T.);
#92=EDGE_CURVE('',#78,#77,#15,.T.);
#93=EDGE_CURVE('',#75,#78,#16,.T.);
#94=EDGE_CURVE('',#77,#75,#55,.T.);
#95=ORIENTED_EDGE('',*,*,#79,.T.);
#96=ORIENTED_EDGE('',*,*,#80,.T.);
#97=ORIENTED_EDGE('',*,*,#81,.F.);
#98=ORIENTED_EDGE('',*,*,#80,.F.);
#99=ORIENTED_EDGE('',*,*,#79,.F.);
#100=ORIENTED_EDGE('',*,*,#81,.T.);
#101=ORIENTED_EDGE('',*,*,#82,.T.);
#102=ORIENTED_EDGE('',*,*,#83,.F.);
#103=ORIENTED_EDGE('',*,*,#83,.T.);
#104=ORIENTED_EDGE('',*,*,#84,.T.);
#105=ORIENTED_EDGE('',*,*,#85,.F.);
#106=ORIENTED_EDGE('',*,*,#84,.F.);
#107=ORIENTED_EDGE('',*,*,#86,.F.);
#108=ORIENTED_EDGE('',*,*,#85,.T.);
#109=ORIENTED_EDGE('',*,*,#82,.F.);
#110=ORIENTED_EDGE('',*,*,#87,.T.);
#111=ORIENTED_EDGE('',*,*,#86,.T.);
#112=ORIENTED_EDGE('',*,*,#87,.F.);
#113=ORIENTED_EDGE('',*,*,#88,.T.);
#114=ORIENTED_EDGE('',*,*,#88,.F.);
#115=ORIENTED_EDGE('',*,*,#89,.T.);
#116=ORIENTED_EDGE('',*,*,#90,.F.);
#117=ORIENTED_EDGE('',*,*,#91,.F.);
#118=ORIENTED_EDGE('',*,*,#92,.F.);
#119=ORIENTED_EDGE('',*,*,#93,.F.);
#120=ORIENTED_EDGE('',*,*,#89,.F.);
#121=ORIENTED_EDGE('',*,*,#91,.T.);
#122=ORIENTED_EDGE('',*,*,#90,.T.);
#123=ORIENTED_EDGE('',*,*,#94,.F.);
#124=ORIENTED_EDGE('',*,*,#92,.T.);
#125=ORIENTED_EDGE('',*,*,#94,.T.);
#126=ORIENTED_EDGE('',*,*,#93,.T.);
#127=CYLINDRICAL_SURFACE('',#180,1.775);
#128=CYLINDRICAL_SURFACE('',#188,1.8);
#129=CYLINDRICAL_SURFACE('',#192,2.);
#130=CYLINDRICAL_SURFACE('',#195,1.29999999999999);
#131=CYLINDRICAL_SURFACE('',#196,0.9);
#132=CYLINDRICAL_SURFACE('',#197,0.9);
#133=STYLED_ITEM('',(#360),#147);
#134=STYLED_ITEM('',(#360),#148);
#135=STYLED_ITEM('',(#360),#149);
#136=STYLED_ITEM('',(#361),#150);
#137=STYLED_ITEM('',(#361),#151);
#138=STYLED_ITEM('',(#361),#152);
#139=STYLED_ITEM('',(#361),#153);
#140=STYLED_ITEM('',(#362),#154);
#141=STYLED_ITEM('',(#362),#155);
#142=STYLED_ITEM('',(#362),#156);
#143=STYLED_ITEM('',(#362),#157);
#144=STYLED_ITEM('',(#359),#19);
#145=STYLED_ITEM('',(#359),#20);
#146=STYLED_ITEM('',(#359),#21);
#147=ADVANCED_FACE('',(#27),#127,.T.);
#148=ADVANCED_FACE('',(#28),#22,.F.);
#149=ADVANCED_FACE('',(#29),#23,.T.);
#150=ADVANCED_FACE('',(#30,#17),#24,.T.);
#151=ADVANCED_FACE('',(#31),#128,.F.);
#152=ADVANCED_FACE('',(#32,#18),#25,.T.);
#153=ADVANCED_FACE('',(#33),#129,.T.);
#154=ADVANCED_FACE('',(#34),#26,.T.);
#155=ADVANCED_FACE('',(#35),#130,.T.);
#156=ADVANCED_FACE('',(#36),#131,.T.);
#157=ADVANCED_FACE('',(#37),#132,.F.);
#158=CLOSED_SHELL('',(#147,#148,#149));
#159=CLOSED_SHELL('',(#150,#151,#152,#153));
#160=CLOSED_SHELL('',(#154,#155,#156,#157));
#161=DERIVED_UNIT_ELEMENT(#163,1.);
#162=DERIVED_UNIT_ELEMENT(#345,3.);
#163=(
MASS_UNIT()
NAMED_UNIT(*)
SI_UNIT($,.GRAM.)
);
#164=DERIVED_UNIT((#161,#162));
#165=MEASURE_REPRESENTATION_ITEM('density measure',
POSITIVE_RATIO_MEASURE(1.),#164);
#166=PROPERTY_DEFINITION_REPRESENTATION(#171,#168);
#167=PROPERTY_DEFINITION_REPRESENTATION(#172,#169);
#168=REPRESENTATION('material name',(#170),#342);
#169=REPRESENTATION('density',(#165),#342);
#170=DESCRIPTIVE_REPRESENTATION_ITEM('Allgemein','Allgemein');
#171=PROPERTY_DEFINITION('material property','material name',#352);
#172=PROPERTY_DEFINITION('material property','density of part',#352);
#173=DATE_TIME_ROLE('creation_date');
#174=APPLIED_DATE_AND_TIME_ASSIGNMENT(#175,#173,(#352));
#175=DATE_AND_TIME(#176,#177);
#176=CALENDAR_DATE(2022,18,3);
#177=LOCAL_TIME(0,0,0.,#178);
#178=COORDINATED_UNIVERSAL_TIME_OFFSET(0,0,.BEHIND.);
#179=AXIS2_PLACEMENT_3D('placement',#241,#198,#199);
#180=AXIS2_PLACEMENT_3D('',#242,#200,#201);
#181=AXIS2_PLACEMENT_3D('',#244,#202,#203);
#182=AXIS2_PLACEMENT_3D('',#247,#205,#206);
#183=AXIS2_PLACEMENT_3D('',#248,#207,#208);
#184=AXIS2_PLACEMENT_3D('',#249,#209,#210);
#185=AXIS2_PLACEMENT_3D('',#250,#211,#212);
#186=AXIS2_PLACEMENT_3D('',#252,#213,#214);
#187=AXIS2_PLACEMENT_3D('',#254,#215,#216);
#188=AXIS2_PLACEMENT_3D('',#255,#217,#218);
#189=AXIS2_PLACEMENT_3D('',#258,#220,#221);
#190=AXIS2_PLACEMENT_3D('',#259,#222,#223);
#191=AXIS2_PLACEMENT_3D('',#261,#224,#225);
#192=AXIS2_PLACEMENT_3D('',#262,#226,#227);
#193=AXIS2_PLACEMENT_3D('',#264,#229,#230);
#194=AXIS2_PLACEMENT_3D('',#266,#231,#232);
#195=AXIS2_PLACEMENT_3D('',#267,#233,#234);
#196=AXIS2_PLACEMENT_3D('',#337,#236,#237);
#197=AXIS2_PLACEMENT_3D('',#339,#239,#240);
#198=DIRECTION('axis',(0.,0.,1.));
#199=DIRECTION('refdir',(1.,0.,0.));
#200=DIRECTION('center_axis',(0.,-1.,0.));
#201=DIRECTION('ref_axis',(-1.,0.,0.));
#202=DIRECTION('center_axis',(0.,1.,0.));
#203=DIRECTION('ref_axis',(-1.,0.,0.));
#204=DIRECTION('',(0.,1.,0.));
#205=DIRECTION('center_axis',(0.,1.,0.));
#206=DIRECTION('ref_axis',(-1.,0.,0.));
#207=DIRECTION('center_axis',(0.,1.,0.));
#208=DIRECTION('ref_axis',(-1.,0.,0.));
#209=DIRECTION('center_axis',(0.,1.,0.));
#210=DIRECTION('ref_axis',(-1.,0.,0.));
#211=DIRECTION('center_axis',(3.30859630388825E-16,-1.,0.));
#212=DIRECTION('ref_axis',(0.,0.,-1.));
#213=DIRECTION('center_axis',(3.30859630388825E-16,-1.,0.));
#214=DIRECTION('ref_axis',(1.,0.,0.));
#215=DIRECTION('center_axis',(3.30859630388825E-16,-1.,0.));
#216=DIRECTION('ref_axis',(1.,0.,0.));
#217=DIRECTION('center_axis',(3.30859630388825E-16,-1.,0.));
#218=DIRECTION('ref_axis',(1.,0.,0.));
#219=DIRECTION('',(-3.30859630388825E-16,1.,0.));
#220=DIRECTION('center_axis',(3.30859630388825E-16,-1.,0.));
#221=DIRECTION('ref_axis',(1.,0.,0.));
#222=DIRECTION('center_axis',(-3.30859630388825E-16,1.,0.));
#223=DIRECTION('ref_axis',(0.,0.,1.));
#224=DIRECTION('center_axis',(3.30859630388825E-16,-1.,0.));
#225=DIRECTION('ref_axis',(1.,0.,0.));
#226=DIRECTION('center_axis',(3.30859630388825E-16,-1.,0.));
#227=DIRECTION('ref_axis',(1.,0.,0.));
#228=DIRECTION('',(-3.30859630388825E-16,1.,0.));
#229=DIRECTION('center_axis',(0.,-1.,0.));
#230=DIRECTION('ref_axis',(0.,0.,-1.));
#231=DIRECTION('center_axis',(0.,-1.,0.));
#232=DIRECTION('ref_axis',(0.,0.,-1.));
#233=DIRECTION('center_axis',(0.,1.,0.));
#234=DIRECTION('ref_axis',(0.,0.,-1.));
#235=DIRECTION('',(0.,1.,0.));
#236=DIRECTION('center_axis',(0.,0.,1.));
#237=DIRECTION('ref_axis',(0.722222222222222,0.691661088777152,0.));
#238=DIRECTION('',(0.,0.,1.));
#239=DIRECTION('center_axis',(0.,0.,1.));
#240=DIRECTION('ref_axis',(0.722222222222223,0.691661088777151,0.));
#241=CARTESIAN_POINT('',(0.,0.,0.));
#242=CARTESIAN_POINT('Origin',(9.86076131526265E-31,0.499999999999998,0.));
#243=CARTESIAN_POINT('',(1.775,-2.22044604925031E-15,2.17374806848655E-16));
#244=CARTESIAN_POINT('Origin',(9.86076131526265E-31,-2.22044604925031E-15,
0.));
#245=CARTESIAN_POINT('',(1.775,0.499999999999998,2.17374806848655E-16));
#246=CARTESIAN_POINT('',(1.775,0.499999999999998,2.17374806848655E-16));
#247=CARTESIAN_POINT('Origin',(9.86076131526265E-31,0.499999999999998,0.));
#248=CARTESIAN_POINT('Origin',(9.86076131526265E-31,-2.22044604925031E-15,
0.));
#249=CARTESIAN_POINT('Origin',(9.86076131526265E-31,0.499999999999998,0.));
#250=CARTESIAN_POINT('Origin',(1.9,-5.80121101327607E-16,0.));
#251=CARTESIAN_POINT('',(-2.,-1.11022302462516E-15,-2.44929359829471E-16));
#252=CARTESIAN_POINT('Origin',(9.86076131526265E-31,0.,0.));
#253=CARTESIAN_POINT('',(-1.8,-3.33066907387547E-15,-2.20436423846524E-16));
#254=CARTESIAN_POINT('Origin',(9.86076131526265E-31,-2.22044604925031E-15,
0.));
#255=CARTESIAN_POINT('Origin',(-2.48144722791619E-15,7.5,0.));
#256=CARTESIAN_POINT('',(-1.80000000000001,15.,-2.20436423846524E-16));
#257=CARTESIAN_POINT('',(-1.8,7.5,-2.20436423846524E-16));
#258=CARTESIAN_POINT('Origin',(-4.96289445583237E-15,15.,0.));
#259=CARTESIAN_POINT('Origin',(1.9,15.,0.));
#260=CARTESIAN_POINT('',(-2.,15.,-2.44929359829471E-16));
#261=CARTESIAN_POINT('Origin',(-4.96289445583237E-15,15.,0.));
#262=CARTESIAN_POINT('Origin',(-2.48144722791619E-15,7.5,0.));
#263=CARTESIAN_POINT('',(-2.,7.5,-2.44929359829471E-16));
#264=CARTESIAN_POINT('Origin',(1.3,2.00000000000001,0.));
#265=CARTESIAN_POINT('',(-4.83679952692405E-15,2.00000000000001,1.29999999999999));
#266=CARTESIAN_POINT('Origin',(-4.9960036108132E-15,2.00000000000001,0.));
#267=CARTESIAN_POINT('Origin',(-4.9960036108132E-15,2.00000000000001,0.));
#268=CARTESIAN_POINT('',(-4.9960036108132E-15,22.,1.3));
#269=CARTESIAN_POINT('',(-4.83679952692405E-15,2.00000000000001,1.29999999999999));
#270=CARTESIAN_POINT('',(-1.3,22.,0.));
#271=CARTESIAN_POINT('Ctrl Pts',(-1.3,22.,-1.73472347597681E-17));
#272=CARTESIAN_POINT('Ctrl Pts',(-1.3,22.,0.0964044258846797));
#273=CARTESIAN_POINT('Ctrl Pts',(-1.28920815720465,22.0117616050473,0.192576221909193));
#274=CARTESIAN_POINT('Ctrl Pts',(-1.24709558056626,22.0515122192799,0.379405793521475));
#275=CARTESIAN_POINT('Ctrl Pts',(-1.21575908545179,22.0792427631025,0.470114915300283));
#276=CARTESIAN_POINT('Ctrl Pts',(-1.0934568018692,22.1670762356378,0.728467697810705));
#277=CARTESIAN_POINT('Ctrl Pts',(-0.97326880732569,22.2307386524425,0.882644274226988));
#278=CARTESIAN_POINT('Ctrl Pts',(-0.755938611113922,22.2741102141967,1.06151895534475));
#279=CARTESIAN_POINT('Ctrl Pts',(-0.672301316005916,22.2815285411114,1.11699604220777));
#280=CARTESIAN_POINT('Ctrl Pts',(-0.49663393502014,22.2687034997282,1.20541442515337));
#281=CARTESIAN_POINT('Ctrl Pts',(-0.404659605268549,22.2480325920507,1.23840394951298));
#282=CARTESIAN_POINT('Ctrl Pts',(-0.225373785199286,22.1777046407568,1.28414006996006));
#283=CARTESIAN_POINT('Ctrl Pts',(-0.117876351383066,22.1110340731288,1.29698757088782));
#284=CARTESIAN_POINT('Ctrl Pts',(-0.0263773620869276,22.0266873651432,1.29980375080964));
#285=CARTESIAN_POINT('Ctrl Pts',(-0.0130233035704802,22.0135987399002,1.29999999999999));
#286=CARTESIAN_POINT('Ctrl Pts',(-4.70645470469954E-15,22.,1.29999999999999));
#287=CARTESIAN_POINT('',(-4.9960036108132E-15,22.,-1.3));
#288=CARTESIAN_POINT('Ctrl Pts',(-4.70645470469955E-15,22.,-1.29999999999999));
#289=CARTESIAN_POINT('Ctrl Pts',(-0.0130233035704808,22.0135987399002,-1.29999999999999));
#290=CARTESIAN_POINT('Ctrl Pts',(-0.0263773620869273,22.0266873651432,-1.29980375080964));
#291=CARTESIAN_POINT('Ctrl Pts',(-0.117876351383066,22.1110340731288,-1.29698757088782));
#292=CARTESIAN_POINT('Ctrl Pts',(-0.225373785199287,22.1777046407568,-1.28414006996006));
#293=CARTESIAN_POINT('Ctrl Pts',(-0.40465960526855,22.2480325920507,-1.23840394951298));
#294=CARTESIAN_POINT('Ctrl Pts',(-0.49663393502014,22.2687034997282,-1.20541442515337));
#295=CARTESIAN_POINT('Ctrl Pts',(-0.672301316005916,22.2815285411114,-1.11699604220777));
#296=CARTESIAN_POINT('Ctrl Pts',(-0.755938611113922,22.2741102141967,-1.06151895534475));
#297=CARTESIAN_POINT('Ctrl Pts',(-0.97326880732569,22.2307386524425,-0.882644274226988));
#298=CARTESIAN_POINT('Ctrl Pts',(-1.0934568018692,22.1670762356378,-0.728467697810703));
#299=CARTESIAN_POINT('Ctrl Pts',(-1.21575908545179,22.0792427631025,-0.470114915300281));
#300=CARTESIAN_POINT('Ctrl Pts',(-1.24709558056626,22.0515122192799,-0.379405793521474));
#301=CARTESIAN_POINT('Ctrl Pts',(-1.28920815720465,22.0117616050473,-0.192576221909193));
#302=CARTESIAN_POINT('Ctrl Pts',(-1.3,22.,-0.0964044258846793));
#303=CARTESIAN_POINT('Ctrl Pts',(-1.3,22.,1.73472347597681E-17));
#304=CARTESIAN_POINT('',(1.29999999999999,22.,0.));
#305=CARTESIAN_POINT('Ctrl Pts',(1.29999999999999,22.,-2.67012126711471E-29));
#306=CARTESIAN_POINT('Ctrl Pts',(1.29999999999999,22.,-0.0964044258846795));
#307=CARTESIAN_POINT('Ctrl Pts',(1.28920815720464,21.9882383949527,-0.192576221909196));
#308=CARTESIAN_POINT('Ctrl Pts',(1.24709558056625,21.9484877807201,-0.379405793521477));
#309=CARTESIAN_POINT('Ctrl Pts',(1.21575908545178,21.9207572368975,-0.470114915300282));
#310=CARTESIAN_POINT('Ctrl Pts',(1.09345680186919,21.8329237643622,-0.728467697810704));
#311=CARTESIAN_POINT('Ctrl Pts',(0.97326880732568,21.7692613475575,-0.882644274226988));
#312=CARTESIAN_POINT('Ctrl Pts',(0.755938611113912,21.7258897858033,-1.06151895534474));
#313=CARTESIAN_POINT('Ctrl Pts',(0.672301316005907,21.7184714588886,-1.11699604220777));
#314=CARTESIAN_POINT('Ctrl Pts',(0.496633935020131,21.7312965002718,-1.20541442515337));
#315=CARTESIAN_POINT('Ctrl Pts',(0.40465960526854,21.7519674079493,-1.23840394951298));
#316=CARTESIAN_POINT('Ctrl Pts',(0.225373785199276,21.8222953592432,-1.28414006996006));
#317=CARTESIAN_POINT('Ctrl Pts',(0.117876351383056,21.8889659268712,-1.29698757088782));
#318=CARTESIAN_POINT('Ctrl Pts',(0.0263773620869179,21.9733126348568,-1.29980375080964));
#319=CARTESIAN_POINT('Ctrl Pts',(0.0130233035704701,21.9864012600998,-1.29999999999999));
#320=CARTESIAN_POINT('Ctrl Pts',(-5.28555251692687E-15,22.,-1.29999999999999));
#321=CARTESIAN_POINT('Ctrl Pts',(-5.28555251692686E-15,22.,1.29999999999999));
#322=CARTESIAN_POINT('Ctrl Pts',(0.0130233035704708,21.9864012600998,1.29999999999999));
#323=CARTESIAN_POINT('Ctrl Pts',(0.0263773620869168,21.9733126348568,1.29980375080964));
#324=CARTESIAN_POINT('Ctrl Pts',(0.117876351383056,21.8889659268712,1.29698757088782));
#325=CARTESIAN_POINT('Ctrl Pts',(0.225373785199276,21.8222953592432,1.28414006996006));
#326=CARTESIAN_POINT('Ctrl Pts',(0.40465960526854,21.7519674079493,1.23840394951298));
#327=CARTESIAN_POINT('Ctrl Pts',(0.49663393502013,21.7312965002718,1.20541442515337));
#328=CARTESIAN_POINT('Ctrl Pts',(0.672301316005907,21.7184714588886,1.11699604220777));
#329=CARTESIAN_POINT('Ctrl Pts',(0.755938611113912,21.7258897858033,1.06151895534475));
#330=CARTESIAN_POINT('Ctrl Pts',(0.97326880732568,21.7692613475575,0.882644274226988));
#331=CARTESIAN_POINT('Ctrl Pts',(1.09345680186919,21.8329237643622,0.728467697810704));
#332=CARTESIAN_POINT('Ctrl Pts',(1.21575908545178,21.9207572368975,0.470114915300282));
#333=CARTESIAN_POINT('Ctrl Pts',(1.24709558056625,21.9484877807201,0.379405793521476));
#334=CARTESIAN_POINT('Ctrl Pts',(1.28920815720464,21.9882383949527,0.192576221909195));
#335=CARTESIAN_POINT('Ctrl Pts',(1.29999999999999,22.,0.0964044258846795));
#336=CARTESIAN_POINT('Ctrl Pts',(1.29999999999999,22.,-2.67012126711471E-29));
#337=CARTESIAN_POINT('Origin',(-0.650000000000006,21.3775050201006,0.));
#338=CARTESIAN_POINT('',(-4.9960036108132E-15,22.,0.));
#339=CARTESIAN_POINT('Origin',(0.649999999999996,22.6224949798994,0.));
#340=UNCERTAINTY_MEASURE_WITH_UNIT(LENGTH_MEASURE(0.01),#344,
'DISTANCE_ACCURACY_VALUE',
'Maximum model space distance between geometric entities at asserted c
onnectivities');
#341=UNCERTAINTY_MEASURE_WITH_UNIT(LENGTH_MEASURE(0.01),#344,
'DISTANCE_ACCURACY_VALUE',
'Maximum model space distance between geometric entities at asserted c
onnectivities');
#342=(
GEOMETRIC_REPRESENTATION_CONTEXT(3)
GLOBAL_UNCERTAINTY_ASSIGNED_CONTEXT((#340))
GLOBAL_UNIT_ASSIGNED_CONTEXT((#344,#346,#347))
REPRESENTATION_CONTEXT('','3D')
);
#343=(
GEOMETRIC_REPRESENTATION_CONTEXT(3)
GLOBAL_UNCERTAINTY_ASSIGNED_CONTEXT((#341))
GLOBAL_UNIT_ASSIGNED_CONTEXT((#344,#346,#347))
REPRESENTATION_CONTEXT('','3D')
);
#344=(
LENGTH_UNIT()
NAMED_UNIT(*)
SI_UNIT(.MILLI.,.METRE.)
);
#345=(
LENGTH_UNIT()
NAMED_UNIT(*)
SI_UNIT(.CENTI.,.METRE.)
);
#346=(
NAMED_UNIT(*)
PLANE_ANGLE_UNIT()
SI_UNIT($,.RADIAN.)
);
#347=(
NAMED_UNIT(*)
SI_UNIT($,.STERADIAN.)
SOLID_ANGLE_UNIT()
);
#348=SHAPE_DEFINITION_REPRESENTATION(#349,#350);
#349=PRODUCT_DEFINITION_SHAPE('',$,#352);
#350=SHAPE_REPRESENTATION('',(#179),#342);
#351=PRODUCT_DEFINITION_CONTEXT('part definition',#356,'design');
#352=PRODUCT_DEFINITION('300700_Shrinkwrap_1','300700_Shrinkwrap_1',#353,
#351);
#353=PRODUCT_DEFINITION_FORMATION('',$,#358);
#354=PRODUCT_RELATED_PRODUCT_CATEGORY('300700_Shrinkwrap_1',
'300700_Shrinkwrap_1',(#358));
#355=APPLICATION_PROTOCOL_DEFINITION('international standard',
'automotive_design',2009,#356);
#356=APPLICATION_CONTEXT(
'Core Data for Automotive Mechanical Design Process');
#357=PRODUCT_CONTEXT('part definition',#356,'mechanical');
#358=PRODUCT('300700_Shrinkwrap_1','300700_Shrinkwrap_1',$,(#357));
#359=PRESENTATION_STYLE_ASSIGNMENT((#363));
#360=PRESENTATION_STYLE_ASSIGNMENT((#364));
#361=PRESENTATION_STYLE_ASSIGNMENT((#365));
#362=PRESENTATION_STYLE_ASSIGNMENT((#366));
#363=SURFACE_STYLE_USAGE(.BOTH.,#375);
#364=SURFACE_STYLE_USAGE(.BOTH.,#376);
#365=SURFACE_STYLE_USAGE(.BOTH.,#377);
#366=SURFACE_STYLE_USAGE(.BOTH.,#378);
#367=SURFACE_STYLE_RENDERING_WITH_PROPERTIES($,#391,(#371));
#368=SURFACE_STYLE_RENDERING_WITH_PROPERTIES($,#392,(#372));
#369=SURFACE_STYLE_RENDERING_WITH_PROPERTIES($,#393,(#373));
#370=SURFACE_STYLE_RENDERING_WITH_PROPERTIES($,#394,(#374));
#371=SURFACE_STYLE_TRANSPARENT(0.);
#372=SURFACE_STYLE_TRANSPARENT(0.);
#373=SURFACE_STYLE_TRANSPARENT(0.);
#374=SURFACE_STYLE_TRANSPARENT(0.);
#375=SURFACE_SIDE_STYLE('',(#379,#367));
#376=SURFACE_SIDE_STYLE('',(#380,#368));
#377=SURFACE_SIDE_STYLE('',(#381,#369));
#378=SURFACE_SIDE_STYLE('',(#382,#370));
#379=SURFACE_STYLE_FILL_AREA(#383);
#380=SURFACE_STYLE_FILL_AREA(#384);
#381=SURFACE_STYLE_FILL_AREA(#385);
#382=SURFACE_STYLE_FILL_AREA(#386);
#383=FILL_AREA_STYLE('',(#387));
#384=FILL_AREA_STYLE('',(#388));
#385=FILL_AREA_STYLE('',(#389));
#386=FILL_AREA_STYLE('',(#390));
#387=FILL_AREA_STYLE_COLOUR('',#391);
#388=FILL_AREA_STYLE_COLOUR('',#392);
#389=FILL_AREA_STYLE_COLOUR('',#393);
#390=FILL_AREA_STYLE_COLOUR('',#394);
#391=COLOUR_RGB('',0.749019607843137,0.749019607843137,0.749019607843137);
#392=COLOUR_RGB('',0.705882352941177,0.705882352941177,0.705882352941177);
#393=COLOUR_RGB('',0.63921568627451,0.63921568627451,0.686274509803922);
#394=COLOUR_RGB('',0.752941176470588,0.752941176470588,0.752941176470588);
ENDSEC;
END-ISO-10303-21;
